   0
SECTION
   2
HEADER
   9
$ACADVER
   1
AC1014
   9
$ACADMAINTVER
  70
      0
   9
$DWGCODEPAGE
   3
ANSI_1252
   9
$INSBASE
  10
0.0
  20
0.0
  30
0.0
   9
$EXTMIN
  10
172.532667
  20
122.25827
  30
0.0
   9
$EXTMAX
  10
241.227107
  20
168.25827
  30
0.0
   9
$LIMMIN
  10
0.0
  20
0.0
   9
$LIMMAX
  10
0.0
  20
0.0
   9
$ORTHOMODE
  70
      0
   9
$REGENMODE
  70
      1
   9
$FILLMODE
  70
      1
   9
$QTEXTMODE
  70
      0
   9
$MIRRTEXT
  70
      1
   9
$DRAGMODE
  70
      2
   9
$LTSCALE
  40
2.0
   9
$OSMODE
  70
      0
   9
$ATTMODE
  70
      1
   9
$TEXTSIZE
  40
0.2
   9
$TRACEWID
  40
0.05
   9
$TEXTSTYLE
   7
STANDARD
   9
$CLAYER
   8
0
   9
$CELTYPE
   6
CONTINUOUS
   9
$CECOLOR
  62
    256
   9
$CELTSCALE
  40
1.0
   9
$DELOBJ
  70
      1
   9
$DISPSILH
  70
      0
   9
$DIMSCALE
  40
1.0
   9
$DIMASZ
  40
0.18
   9
$DIMEXO
  40
0.0625
   9
$DIMDLI
  40
0.38
   9
$DIMRND
  40
0.0
   9
$DIMDLE
  40
0.0
   9
$DIMEXE
  40
0.18
   9
$DIMTP
  40
0.0
   9
$DIMTM
  40
0.0
   9
$DIMTXT
  40
0.18
   9
$DIMCEN
  40
0.09
   9
$DIMTSZ
  40
0.0
   9
$DIMTOL
  70
      0
   9
$DIMLIM
  70
      0
   9
$DIMTIH
  70
      1
   9
$DIMTOH
  70
      1
   9
$DIMSE1
  70
      0
   9
$DIMSE2
  70
      0
   9
$DIMTAD
  70
      0
   9
$DIMZIN
  70
      0
   9
$DIMBLK
   1

   9
$DIMASO
  70
      1
   9
$DIMSHO
  70
      1
   9
$DIMPOST
   1

   9
$DIMAPOST
   1

   9
$DIMALT
  70
      0
   9
$DIMALTD
  70
      2
   9
$DIMALTF
  40
25.4
   9
$DIMLFAC
  40
1.0
   9
$DIMTOFL
  70
      0
   9
$DIMTVP
  40
0.0
   9
$DIMTIX
  70
      0
   9
$DIMSOXD
  70
      0
   9
$DIMSAH
  70
      0
   9
$DIMBLK1
   1

   9
$DIMBLK2
   1

   9
$DIMSTYLE
   2
STANDARD
   9
$DIMCLRD
  70
      0
   9
$DIMCLRE
  70
      0
   9
$DIMCLRT
  70
      0
   9
$DIMTFAC
  40
1.0
   9
$DIMGAP
  40
0.09
   9
$DIMJUST
  70
      0
   9
$DIMSD1
  70
      0
   9
$DIMSD2
  70
      0
   9
$DIMTOLJ
  70
      1
   9
$DIMTZIN
  70
      0
   9
$DIMALTZ
  70
      0
   9
$DIMALTTZ
  70
      0
   9
$DIMFIT
  70
      3
   9
$DIMUPT
  70
      0
   9
$DIMUNIT
  70
      2
   9
$DIMDEC
  70
      4
   9
$DIMTDEC
  70
      4
   9
$DIMALTU
  70
      2
   9
$DIMALTTD
  70
      2
   9
$DIMTXSTY
   7
STANDARD
   9
$DIMAUNIT
  70
      0
   9
$LUNITS
  70
      2
   9
$LUPREC
  70
      4
   9
$SKETCHINC
  40
0.1
   9
$FILLETRAD
  40
0.0
   9
$AUNITS
  70
      0
   9
$AUPREC
  70
      0
   9
$MENU
   1
acad
   9
$ELEVATION
  40
0.0
   9
$PELEVATION
  40
0.0
   9
$THICKNESS
  40
0.0
   9
$LIMCHECK
  70
      0
   9
$BLIPMODE
  70
      1
   9
$CHAMFERA
  40
0.0
   9
$CHAMFERB
  40
0.0
   9
$CHAMFERC
  40
0.0
   9
$CHAMFERD
  40
0.0
   9
$SKPOLY
  70
      0
   9
$TDCREATE
  40
2452107.874421296
   9
$TDUPDATE
  40
2452107.874421296
   9
$TDINDWG
  40
0.0000000000
   9
$TDUSRTIMER
  40
0.0000000000
   9
$USRTIMER
  70
      1
   9
$ANGBASE
  50
0.0
   9
$ANGDIR
  70
      0
   9
$PDMODE
  70
      0
   9
$PDSIZE
  40
0.0
   9
$PLINEWID
  40
0.0
   9
$COORDS
  70
      0
   9
$SPLFRAME
  70
      0
   9
$SPLINETYPE
  70
      6
   9
$SPLINESEGS
  70
      8
   9
$ATTDIA
  70
      0
   9
$ATTREQ
  70
      1
   9
$HANDLING
  70
      1
   9
$HANDSEED
   5
59B
   9
$SURFTAB1
  70
      6
   9
$SURFTAB2
  70
      6
   9
$SURFTYPE
  70
      6
   9
$SURFU
  70
      6
   9
$SURFV
  70
      6
   9
$UCSNAME
   2

   9
$UCSORG
  10
0.0
  20
0.0
  30
0.0
   9
$UCSXDIR
  10
1.0
  20
0.0
  30
0.0
   9
$UCSYDIR
  10
0.0
  20
1.0
  30
0.0
   9
$PUCSNAME
   2

   9
$PUCSORG
  10
0.0
  20
0.0
  30
0.0
   9
$PUCSXDIR
  10
1.0
  20
0.0
  30
0.0
   9
$PUCSYDIR
  10
0.0
  20
1.0
  30
0.0
   9
$USERI1
  70
      0
   9
$USERI2
  70
      0
   9
$USERI3
  70
      0
   9
$USERI4
  70
      0
   9
$USERI5
  70
      0
   9
$USERR1
  40
0.0
   9
$USERR2
  40
0.0
   9
$USERR3
  40
0.0
   9
$USERR4
  40
0.0
   9
$USERR5
  40
0.0
   9
$WORLDVIEW
  70
      1
   9
$SHADEDGE
  70
      3
   9
$SHADEDIF
  70
     70
   9
$TILEMODE
  70
      1
   9
$MAXACTVP
  70
     16
   9
$PINSBASE
  10
0.0
  20
0.0
  30
0.0
   9
$PLIMCHECK
  70
      0
   9
$PEXTMIN
  10
1.000000E+20
  20
1.000000E+20
  30
1.000000E+20
   9
$PEXTMAX
  10
-1.000000E+20
  20
-1.000000E+20
  30
-1.000000E+20
   9
$PLIMMIN
  10
0.0
  20
0.0
   9
$PLIMMAX
  10
12.0
  20
9.0
   9
$UNITMODE
  70
      0
   9
$VISRETAIN
  70
      0
   9
$PLINEGEN
  70
      1
   9
$PSLTSCALE
  70
      0
   9
$TREEDEPTH
  70
   3020
   9
$PICKSTYLE
  70
      1
   9
$CMLSTYLE
   2
STANDARD
   9
$CMLJUST
  70
      0
   9
$CMLSCALE
  40
1.0
   9
$PROXYGRAPHICS
  70
      0
   9
$MEASUREMENT
  70
      0
   0
ENDSEC
   0
SECTION
   2
CLASSES
   0
CLASS
   1
LWPOLYLINE
   2
AcDbPolyline
   3
"AutoCAD"
  90
         0
280
      0
281
      1
   0
CLASS
   1
IMAGE
   2
AcDbRasterImage
   3
ISM
  90
       127
280
      0
281
      1
   0
CLASS
   1
OLE2FRAME
   2
AcDbOle2Frame
   3
""
  90
         0
280
      0
281
      1
   0
CLASS
   1
HATCH
   2
AcDbHatch
   3
"ACAD_SEDONA"
  90
         0
280
      0
281
      1
   0
CLASS
   1
DICTIONARYVAR
   2
AcDbDictionaryVar
   3
"AutoCAD"
  90
         0
280
      0
281
      0
   0
CLASS
   1
RASTERVARIABLES
   2
AcDbRasterVariables
   3
ISM
  90
         0
280
      0
281
      0
   0
CLASS
   1
IMAGEDEF
   2
AcDbRasterImageDef
   3
ISM
  90
         0
280
      0
281
      0
   0
CLASS
   1
IMAGEDEF_REACTOR
   2
AcDbRasterImageDefReactor
   3
ISM
  90
         1
280
      0
281
      0
   0
CLASS
   1
IDBUFFER
   2
AcDbIdBuffer
   3
"Acad"
  90
         0
280
      0
281
      0
   0
CLASS
   1
SPATIAL_FILTER
   2
AcDbSpatialFilter
   3
"Acad"
  90
         0
280
      0
281
      0
   0
CLASS
   1
XRECORD
   2
AcDbXrecord
   3
"<Built In>"
  90
         0
280
      0
281
      0
   0
CLASS
   1
SORTENTSTABLE
   2
AcDbSortentsTable
   3
"AutoCAD"
  90
         0
280
      0
281
      0
   0
CLASS
   1
LAYER_INDEX
   2
AcDbLayerIndex
   3
"Acad"
  90
         0
280
      0
281
      0
   0
CLASS
   1
SPATIAL_INDEX
   2
AcDbSpatialIndex
   3
"Acad"
  90
         0
280
      0
281
      0
   0
CLASS
   1
OBJECT_PTR
   2
CAseDLPNTableRecord
   3
"ASE-LPNTableRecord"
  90
         1
280
      0
281
      0
   0
ENDSEC
   0
SECTION
   2
TABLES
   0
TABLE
   2
VPORT
   5
7
100
AcDbSymbolTable
  70
      1
   0
VPORT
   5
15
100
AcDbSymbolTableRecord
100
AcDbViewportTableRecord
   2
*ACTIVE
  70
      0
  10
0.0
  20
0.0
  11
1.0
  21
1.0
  12
206.879887
  22
145.25827
  13
0.0
  23
0.0
  14
1.0
  24
1.0
  15
0.0
  25
0.0
  16
0.0
  26
0.0
  36
1.0
  17
0.0
  27
0.0
  37
0.0
  40
46.0
  41
0.688564
  42
50.0
  43
0.0
  44
0.0
  50
0.0
  51
0.0
  71
      0
  72
    100
  73
      1
  74
      1
  75
      0
  76
      0
  77
      0
  78
      0
   0
ENDTAB
   0
TABLE
   2
LTYPE
   5
4
100
AcDbSymbolTable
  70
     13
   0
LTYPE
   5
11
100
AcDbSymbolTableRecord
100
AcDbLinetypeTableRecord
   2
BYBLOCK
  70
      0
   3

  72
     65
  73
      0
  40
0.0
   0
LTYPE
   5
12
100
AcDbSymbolTableRecord
100
AcDbLinetypeTableRecord
   2
BYLAYER
  70
      0
   3

  72
     65
  73
      0
  40
0.0
   0
LTYPE
   5
13
100
AcDbSymbolTableRecord
100
AcDbLinetypeTableRecord
   2
CONTINUOUS
  70
      0
   3
Solid line
  72
     65
  73
      0
  40
0.0
   0
LTYPE
   5
59
100
AcDbSymbolTableRecord
100
AcDbLinetypeTableRecord
   2
VECTORWORKS_DASH_01
  70
      0
   3
(unavailable)
  72
     65
  73
      2
  40
0.024948
  49
0.016632
  74
      0
  49
-0.008316
  74
      0
   0
LTYPE
   5
5A
100
AcDbSymbolTableRecord
100
AcDbLinetypeTableRecord
   2
VECTORWORKS_DASH_02
  70
      0
   3
(unavailable)
  72
     65
  73
      2
  40
0.049911
  49
0.033279
  74
      0
  49
-0.016632
  74
      0
   0
LTYPE
   5
5B
100
AcDbSymbolTableRecord
100
AcDbLinetypeTableRecord
   2
VECTORWORKS_DASH_03
  70
      0
   3
(unavailable)
  72
     65
  73
      4
  40
0.133087
  49
0.083191
  74
      0
  49
-0.016632
  74
      0
  49
0.016632
  74
      0
  49
-0.016632
  74
      0
   0
LTYPE
   5
5C
100
AcDbSymbolTableRecord
100
AcDbLinetypeTableRecord
   2
VECTORWORKS_DASH_04
  70
      0
   3
(unavailable)
  72
     65
  73
      6
  40
0.166351
  49
0.083191
  74
      0
  49
-0.016632
  74
      0
  49
0.016632
  74
      0
  49
-0.016632
  74
      0
  49
0.016632
  74
      0
  49
-0.016632
  74
      0
   0
LTYPE
   5
5D
100
AcDbSymbolTableRecord
100
AcDbLinetypeTableRecord
   2
VECTORWORKS_DASH_05
  70
      0
   3
(unavailable)
  72
     65
  73
      2
  40
0.016632
  49
0.000015
  74
      0
  49
-0.016617
  74
      0
   0
LTYPE
   5
5E
100
AcDbSymbolTableRecord
100
AcDbLinetypeTableRecord
   2
VECTORWORKS_DASH_06
  70
      0
   3
(unavailable)
  72
     65
  73
      4
  40
0.066544
  49
0.033279
  74
      0
  49
-0.016632
  74
      0
  49
0.000015
  74
      0
  49
-0.016617
  74
      0
   0
LTYPE
   5
5F
100
AcDbSymbolTableRecord
100
AcDbLinetypeTableRecord
   2
VECTORWORKS_DASH_07
  70
      0
   3
(unavailable)
  72
     65
  73
      6
  40
0.083176
  49
0.033279
  74
      0
  49
-0.016632
  74
      0
  49
0.000015
  74
      0
  49
-0.016617
  74
      0
  49
0.000015
  74
      0
  49
-0.016617
  74
      0
   0
LTYPE
   5
60
100
AcDbSymbolTableRecord
100
AcDbLinetypeTableRecord
   2
VECTORWORKS_DASH_08
  70
      0
   3
(unavailable)
  72
     65
  73
      6
  40
0.116455
  49
0.033279
  74
      0
  49
-0.016632
  74
      0
  49
0.033279
  74
      0
  49
-0.016632
  74
      0
  49
0.000015
  74
      0
  49
-0.016617
  74
      0
   0
LTYPE
   5
61
100
AcDbSymbolTableRecord
100
AcDbLinetypeTableRecord
   2
VECTORWORKS_DASH_09
  70
      0
   3
(unavailable)
  72
     65
  73
      4
  40
1.0
  49
0.75
  74
      0
  49
-0.055557
  74
      0
  49
0.138885
  74
      0
  49
-0.055557
  74
      0
   0
LTYPE
   5
62
100
AcDbSymbolTableRecord
100
AcDbLinetypeTableRecord
   2
VECTORWORKS_DASH_10
  70
      0
   3
(unavailable)
  72
     65
  73
      6
  40
1.1875
  49
0.75
  74
      0
  49
-0.055557
  74
      0
  49
0.138885
  74
      0
  49
-0.055557
  74
      0
  49
0.125
  74
      0
  49
-0.0625
  74
      0
   0
ENDTAB
   0
TABLE
   2
LAYER
   5
2
100
AcDbSymbolTable
  70
      5
   0
LAYER
   5
14
100
AcDbSymbolTableRecord
100
AcDbLayerTableRecord
   2
0
  70
      0
  62
      7
   6
CONTINUOUS
   0
LAYER
   5
63
100
AcDbSymbolTableRecord
100
AcDbLayerTableRecord
   2
MAIN
  70
     64
  62
      7
   6
CONTINUOUS
   0
LAYER
   5
64
100
AcDbSymbolTableRecord
100
AcDbLayerTableRecord
   2
TITLEBLOCK
  70
     64
  62
      7
   6
CONTINUOUS
   0
LAYER
   5
65
100
AcDbSymbolTableRecord
100
AcDbLayerTableRecord
   2
DIMENSIONS
  70
     64
  62
      7
   6
CONTINUOUS
   0
LAYER
   5
66
100
AcDbSymbolTableRecord
100
AcDbLayerTableRecord
   2
NOTES
  70
     64
  62
      7
   6
CONTINUOUS
   0
ENDTAB
   0
TABLE
   2
STYLE
   5
3
100
AcDbSymbolTable
  70
      1
   0
STYLE
   5
17
100
AcDbSymbolTableRecord
100
AcDbTextStyleTableRecord
   2
STANDARD
  70
      0
  40
0.0
  41
0.6
  50
0.0
  71
      0
  42
0.0
   3
txt
   4

   0
ENDTAB
   0
TABLE
   2
VIEW
   5
5
100
AcDbSymbolTable
  70
      0
   0
ENDTAB
   0
TABLE
   2
UCS
   5
6
100
AcDbSymbolTable
  70
      0
   0
ENDTAB
   0
TABLE
   2
APPID
   5
8
100
AcDbSymbolTable
  70
      1
   0
APPID
   5
16
100
AcDbSymbolTableRecord
100
AcDbRegAppTableRecord
   2
ACAD
  70
      0
   0
ENDTAB
   0
TABLE
   2
DIMSTYLE
   5
9
100
AcDbSymbolTable
  70
      1
   0
DIMSTYLE
105
18
100
AcDbSymbolTableRecord
100
AcDbDimStyleTableRecord
   2
STANDARD
  70
      0
   3

   4

   5

   6

   7

  40
1.0
  41
0.18
  42
0.0625
  43
0.38
  44
0.18
  45
0.0
  46
0.0
  47
0.0
  48
0.0
140
0.18
141
0.09
142
0.0
143
25.4
144
1.0
145
0.0
146
1.0
147
0.09
  71
      0
  72
      0
  73
      1
  74
      1
  75
      0
  76
      0
  77
      0
  78
      0
170
      0
171
      2
172
      0
173
      0
174
      0
175
      0
176
      0
177
      0
178
      0
270
      2
271
      4
272
      4
273
      2
274
      2
340
17
275
      0
280
      0
281
      0
282
      0
283
      1
284
      0
285
      0
286
      0
287
      0
288
      0
   0
ENDTAB
   0
TABLE
   2
BLOCK_RECORD
   5
1
100
AcDbSymbolTable
  70
     60
   0
BLOCK_RECORD
   5
A
100
AcDbSymbolTableRecord
100
AcDbBlockTableRecord
   2
*MODEL_SPACE
   0
BLOCK_RECORD
   5
B
100
AcDbSymbolTableRecord
100
AcDbBlockTableRecord
   2
*PAPER_SPACE
   0
BLOCK_RECORD
   5
1D
100
AcDbSymbolTableRecord
100
AcDbBlockTableRecord
   2
*G0
   0
BLOCK_RECORD
   5
1E
100
AcDbSymbolTableRecord
100
AcDbBlockTableRecord
   2
*G1
   0
BLOCK_RECORD
   5
1F
100
AcDbSymbolTableRecord
100
AcDbBlockTableRecord
   2
*G2
   0
BLOCK_RECORD
   5
20
100
AcDbSymbolTableRecord
100
AcDbBlockTableRecord
   2
*G3
   0
BLOCK_RECORD
   5
21
100
AcDbSymbolTableRecord
100
AcDbBlockTableRecord
   2
*G4
   0
BLOCK_RECORD
   5
22
100
AcDbSymbolTableRecord
100
AcDbBlockTableRecord
   2
*G5
   0
BLOCK_RECORD
   5
23
100
AcDbSymbolTableRecord
100
AcDbBlockTableRecord
   2
*G6
   0
BLOCK_RECORD
   5
24
100
AcDbSymbolTableRecord
100
AcDbBlockTableRecord
   2
*G7
   0
BLOCK_RECORD
   5
25
100
AcDbSymbolTableRecord
100
AcDbBlockTableRecord
   2
*G8
   0
BLOCK_RECORD
   5
26
100
AcDbSymbolTableRecord
100
AcDbBlockTableRecord
   2
*G9
   0
BLOCK_RECORD
   5
27
100
AcDbSymbolTableRecord
100
AcDbBlockTableRecord
   2
*G10
   0
BLOCK_RECORD
   5
28
100
AcDbSymbolTableRecord
100
AcDbBlockTableRecord
   2
*G11
   0
BLOCK_RECORD
   5
29
100
AcDbSymbolTableRecord
100
AcDbBlockTableRecord
   2
*G12
   0
BLOCK_RECORD
   5
2A
100
AcDbSymbolTableRecord
100
AcDbBlockTableRecord
   2
*G13
   0
BLOCK_RECORD
   5
2B
100
AcDbSymbolTableRecord
100
AcDbBlockTableRecord
   2
*G14
   0
BLOCK_RECORD
   5
2C
100
AcDbSymbolTableRecord
100
AcDbBlockTableRecord
   2
*G15
   0
BLOCK_RECORD
   5
2D
100
AcDbSymbolTableRecord
100
AcDbBlockTableRecord
   2
*G16
   0
BLOCK_RECORD
   5
2E
100
AcDbSymbolTableRecord
100
AcDbBlockTableRecord
   2
*G17
   0
BLOCK_RECORD
   5
2F
100
AcDbSymbolTableRecord
100
AcDbBlockTableRecord
   2
*G18
   0
BLOCK_RECORD
   5
30
100
AcDbSymbolTableRecord
100
AcDbBlockTableRecord
   2
*G19
   0
BLOCK_RECORD
   5
31
100
AcDbSymbolTableRecord
100
AcDbBlockTableRecord
   2
*G20
   0
BLOCK_RECORD
   5
32
100
AcDbSymbolTableRecord
100
AcDbBlockTableRecord
   2
*G21
   0
BLOCK_RECORD
   5
33
100
AcDbSymbolTableRecord
100
AcDbBlockTableRecord
   2
*G22
   0
BLOCK_RECORD
   5
34
100
AcDbSymbolTableRecord
100
AcDbBlockTableRecord
   2
*G23
   0
BLOCK_RECORD
   5
35
100
AcDbSymbolTableRecord
100
AcDbBlockTableRecord
   2
*G24
   0
BLOCK_RECORD
   5
36
100
AcDbSymbolTableRecord
100
AcDbBlockTableRecord
   2
*G25
   0
BLOCK_RECORD
   5
37
100
AcDbSymbolTableRecord
100
AcDbBlockTableRecord
   2
*G26
   0
BLOCK_RECORD
   5
38
100
AcDbSymbolTableRecord
100
AcDbBlockTableRecord
   2
*G27
   0
BLOCK_RECORD
   5
39
100
AcDbSymbolTableRecord
100
AcDbBlockTableRecord
   2
*G28
   0
BLOCK_RECORD
   5
3A
100
AcDbSymbolTableRecord
100
AcDbBlockTableRecord
   2
*G29
   0
BLOCK_RECORD
   5
3B
100
AcDbSymbolTableRecord
100
AcDbBlockTableRecord
   2
*G30
   0
BLOCK_RECORD
   5
3C
100
AcDbSymbolTableRecord
100
AcDbBlockTableRecord
   2
*G31
   0
BLOCK_RECORD
   5
3D
100
AcDbSymbolTableRecord
100
AcDbBlockTableRecord
   2
*G32
   0
BLOCK_RECORD
   5
3E
100
AcDbSymbolTableRecord
100
AcDbBlockTableRecord
   2
*G33
   0
BLOCK_RECORD
   5
3F
100
AcDbSymbolTableRecord
100
AcDbBlockTableRecord
   2
*G34
   0
BLOCK_RECORD
   5
40
100
AcDbSymbolTableRecord
100
AcDbBlockTableRecord
   2
*G35
   0
BLOCK_RECORD
   5
41
100
AcDbSymbolTableRecord
100
AcDbBlockTableRecord
   2
*G36
   0
BLOCK_RECORD
   5
42
100
AcDbSymbolTableRecord
100
AcDbBlockTableRecord
   2
*G37
   0
BLOCK_RECORD
   5
43
100
AcDbSymbolTableRecord
100
AcDbBlockTableRecord
   2
*G38
   0
BLOCK_RECORD
   5
44
100
AcDbSymbolTableRecord
100
AcDbBlockTableRecord
   2
*G39
   0
BLOCK_RECORD
   5
45
100
AcDbSymbolTableRecord
100
AcDbBlockTableRecord
   2
*G40
   0
BLOCK_RECORD
   5
46
100
AcDbSymbolTableRecord
100
AcDbBlockTableRecord
   2
*G41
   0
BLOCK_RECORD
   5
47
100
AcDbSymbolTableRecord
100
AcDbBlockTableRecord
   2
*G42
   0
BLOCK_RECORD
   5
48
100
AcDbSymbolTableRecord
100
AcDbBlockTableRecord
   2
*G43
   0
BLOCK_RECORD
   5
49
100
AcDbSymbolTableRecord
100
AcDbBlockTableRecord
   2
*G44
   0
BLOCK_RECORD
   5
4A
100
AcDbSymbolTableRecord
100
AcDbBlockTableRecord
   2
*G45
   0
BLOCK_RECORD
   5
4B
100
AcDbSymbolTableRecord
100
AcDbBlockTableRecord
   2
*G46
   0
BLOCK_RECORD
   5
4C
100
AcDbSymbolTableRecord
100
AcDbBlockTableRecord
   2
*G47
   0
BLOCK_RECORD
   5
4D
100
AcDbSymbolTableRecord
100
AcDbBlockTableRecord
   2
*G48
   0
BLOCK_RECORD
   5
4E
100
AcDbSymbolTableRecord
100
AcDbBlockTableRecord
   2
*G49
   0
BLOCK_RECORD
   5
4F
100
AcDbSymbolTableRecord
100
AcDbBlockTableRecord
   2
*G50
   0
BLOCK_RECORD
   5
50
100
AcDbSymbolTableRecord
100
AcDbBlockTableRecord
   2
*G51
   0
BLOCK_RECORD
   5
51
100
AcDbSymbolTableRecord
100
AcDbBlockTableRecord
   2
*G52
   0
BLOCK_RECORD
   5
52
100
AcDbSymbolTableRecord
100
AcDbBlockTableRecord
   2
*G53
   0
BLOCK_RECORD
   5
53
100
AcDbSymbolTableRecord
100
AcDbBlockTableRecord
   2
*G54
   0
BLOCK_RECORD
   5
54
100
AcDbSymbolTableRecord
100
AcDbBlockTableRecord
   2
*G55
   0
BLOCK_RECORD
   5
55
100
AcDbSymbolTableRecord
100
AcDbBlockTableRecord
   2
*G56
   0
BLOCK_RECORD
   5
56
100
AcDbSymbolTableRecord
100
AcDbBlockTableRecord
   2
*G57
   0
BLOCK_RECORD
   5
57
100
AcDbSymbolTableRecord
100
AcDbBlockTableRecord
   2
*G58
   0
BLOCK_RECORD
   5
58
100
AcDbSymbolTableRecord
100
AcDbBlockTableRecord
   2
*G59
   0
ENDTAB
   0
ENDSEC
   0
SECTION
   2
BLOCKS
   0
BLOCK
   5
D
100
AcDbEntity
   8
0
100
AcDbBlockBegin
   2
*MODEL_SPACE
  70
      0
  10
0.0
  20
0.0
  30
0.0
   3
*MODEL_SPACE
   1

   0
ENDBLK
   5
E
100
AcDbEntity
   8
0
100
AcDbBlockEnd
   0
BLOCK
   5
F
100
AcDbEntity
  67
      1
   8
0
100
AcDbBlockBegin
   2
*PAPER_SPACE
  70
      0
  10
0.0
  20
0.0
  30
0.0
   3
*PAPER_SPACE
   1

   0
ENDBLK
   5
10
100
AcDbEntity
  67
      1
   8
0
100
AcDbBlockEnd
   0
BLOCK
   5
67
100
AcDbEntity
   8
MAIN
100
AcDbBlockBegin
   2
*G0
  70
      1
  10
0.0
  20
0.0
  30
0.0
   3

   1

   0
LINE
   5
68
100
AcDbEntity
   8
MAIN
   6
CONTINUOUS
  62
      7
100
AcDbLine
  10
-15.59609
  20
2.83013
  30
0.0
  11
-14.52277
  21
2.83013
  31
0.0
   0
LINE
   5
69
100
AcDbEntity
   8
MAIN
   6
CONTINUOUS
  62
      7
100
AcDbLine
  10
-15.05943
  20
2.29347
  30
0.0
  11
-15.05943
  21
3.36679
  31
0.0
   0
LINE
   5
6A
100
AcDbEntity
   8
MAIN
   6
CONTINUOUS
  62
      7
100
AcDbLine
  10
-16.95268
  20
2.83013
  30
0.0
  11
-15.86442
  21
2.83013
  31
0.0
   0
LINE
   5
6B
100
AcDbEntity
   8
MAIN
   6
CONTINUOUS
  62
      7
100
AcDbLine
  10
-14.25444
  20
2.83013
  30
0.0
  11
-13.16618
  21
2.83013
  31
0.0
   0
LINE
   5
6C
100
AcDbEntity
   8
MAIN
   6
CONTINUOUS
  62
      7
100
AcDbLine
  10
-15.05943
  20
4.72338
  30
0.0
  11
-15.05943
  21
3.63512
  31
0.0
   0
LINE
   5
6D
100
AcDbEntity
   8
MAIN
   6
CONTINUOUS
  62
      7
100
AcDbLine
  10
-15.05943
  20
2.02514
  30
0.0
  11
-15.05943
  21
0.93688
  31
0.0
   0
ENDBLK
   5
6E
100
AcDbEntity
   8
MAIN
100
AcDbBlockEnd
   0
BLOCK
   5
6F
100
AcDbEntity
   8
MAIN
100
AcDbBlockBegin
   2
*G1
  70
      1
  10
0.0
  20
0.0
  30
0.0
   3

   1

   0
LINE
   5
70
100
AcDbEntity
   8
MAIN
   6
CONTINUOUS
  62
      7
100
AcDbLine
  10
-9.61868
  20
9.43945
  30
0.0
  11
-8.54536
  21
9.43945
  31
0.0
   0
LINE
   5
71
100
AcDbEntity
   8
MAIN
   6
CONTINUOUS
  62
      7
100
AcDbLine
  10
-9.08202
  20
8.90279
  30
0.0
  11
-9.08202
  21
9.97611
  31
0.0
   0
LINE
   5
72
100
AcDbEntity
   8
MAIN
   6
CONTINUOUS
  62
      7
100
AcDbLine
  10
-10.97527
  20
9.43945
  30
0.0
  11
-9.88701
  21
9.43945
  31
0.0
   0
LINE
   5
73
100
AcDbEntity
   8
MAIN
   6
CONTINUOUS
  62
      7
100
AcDbLine
  10
-8.27703
  20
9.43945
  30
0.0
  11
-7.18877
  21
9.43945
  31
0.0
   0
LINE
   5
74
100
AcDbEntity
   8
MAIN
   6
CONTINUOUS
  62
      7
100
AcDbLine
  10
-9.08202
  20
11.3327
  30
0.0
  11
-9.08202
  21
10.24444
  31
0.0
   0
LINE
   5
75
100
AcDbEntity
   8
MAIN
   6
CONTINUOUS
  62
      7
100
AcDbLine
  10
-9.08202
  20
8.63446
  30
0.0
  11
-9.08202
  21
7.5462
  31
0.0
   0
ENDBLK
   5
76
100
AcDbEntity
   8
MAIN
100
AcDbBlockEnd
   0
BLOCK
   5
77
100
AcDbEntity
   8
MAIN
100
AcDbBlockBegin
   2
*G2
  70
      1
  10
0.0
  20
0.0
  30
0.0
   3

   1

   0
LINE
   5
78
100
AcDbEntity
   8
MAIN
   6
CONTINUOUS
  62
      7
100
AcDbLine
  10
-21.5735
  20
9.43945
  30
0.0
  11
-20.50018
  21
9.43945
  31
0.0
   0
LINE
   5
79
100
AcDbEntity
   8
MAIN
   6
CONTINUOUS
  62
      7
100
AcDbLine
  10
-21.03684
  20
8.90279
  30
0.0
  11
-21.03684
  21
9.97611
  31
0.0
   0
LINE
   5
7A
100
AcDbEntity
   8
MAIN
   6
CONTINUOUS
  62
      7
100
AcDbLine
  10
-22.93009
  20
9.43945
  30
0.0
  11
-21.84183
  21
9.43945
  31
0.0
   0
LINE
   5
7B
100
AcDbEntity
   8
MAIN
   6
CONTINUOUS
  62
      7
100
AcDbLine
  10
-20.23185
  20
9.43945
  30
0.0
  11
-19.14359
  21
9.43945
  31
0.0
   0
LINE
   5
7C
100
AcDbEntity
   8
MAIN
   6
CONTINUOUS
  62
      7
100
AcDbLine
  10
-21.03684
  20
11.3327
  30
0.0
  11
-21.03684
  21
10.24444
  31
0.0
   0
LINE
   5
7D
100
AcDbEntity
   8
MAIN
   6
CONTINUOUS
  62
      7
100
AcDbLine
  10
-21.03684
  20
8.63446
  30
0.0
  11
-21.03684
  21
7.5462
  31
0.0
   0
ENDBLK
   5
7E
100
AcDbEntity
   8
MAIN
100
AcDbBlockEnd
   0
BLOCK
   5
7F
100
AcDbEntity
   8
MAIN
100
AcDbBlockBegin
   2
*G3
  70
      1
  10
0.0
  20
0.0
  30
0.0
   3

   1

   0
LINE
   5
80
100
AcDbEntity
   8
MAIN
   6
CONTINUOUS
  62
      7
100
AcDbLine
  10
-23.82349
  20
1.76237
  30
0.0
  11
-22.75017
  21
1.76237
  31
0.0
   0
LINE
   5
81
100
AcDbEntity
   8
MAIN
   6
CONTINUOUS
  62
      7
100
AcDbLine
  10
-23.28683
  20
1.22571
  30
0.0
  11
-23.28683
  21
2.29903
  31
0.0
   0
LINE
   5
82
100
AcDbEntity
   8
MAIN
   6
CONTINUOUS
  62
      7
100
AcDbLine
  10
-25.18008
  20
1.76237
  30
0.0
  11
-24.09182
  21
1.76237
  31
0.0
   0
LINE
   5
83
100
AcDbEntity
   8
MAIN
   6
CONTINUOUS
  62
      7
100
AcDbLine
  10
-22.48184
  20
1.76237
  30
0.0
  11
-21.39358
  21
1.76237
  31
0.0
   0
LINE
   5
84
100
AcDbEntity
   8
MAIN
   6
CONTINUOUS
  62
      7
100
AcDbLine
  10
-23.28683
  20
3.65562
  30
0.0
  11
-23.28683
  21
2.56736
  31
0.0
   0
LINE
   5
85
100
AcDbEntity
   8
MAIN
   6
CONTINUOUS
  62
      7
100
AcDbLine
  10
-23.28683
  20
0.95738
  30
0.0
  11
-23.28683
  21
-0.13088
  31
0.0
   0
ENDBLK
   5
86
100
AcDbEntity
   8
MAIN
100
AcDbBlockEnd
   0
BLOCK
   5
87
100
AcDbEntity
   8
MAIN
100
AcDbBlockBegin
   2
*G4
  70
      1
  10
0.0
  20
0.0
  30
0.0
   3

   1

   0
LINE
   5
88
100
AcDbEntity
   8
MAIN
   6
CONTINUOUS
  62
      7
100
AcDbLine
  10
-19.3235
  20
1.76237
  30
0.0
  11
-18.25018
  21
1.76237
  31
0.0
   0
LINE
   5
89
100
AcDbEntity
   8
MAIN
   6
CONTINUOUS
  62
      7
100
AcDbLine
  10
-18.78684
  20
1.22571
  30
0.0
  11
-18.78684
  21
2.29903
  31
0.0
   0
LINE
   5
8A
100
AcDbEntity
   8
MAIN
   6
CONTINUOUS
  62
      7
100
AcDbLine
  10
-20.68009
  20
1.76237
  30
0.0
  11
-19.59183
  21
1.76237
  31
0.0
   0
LINE
   5
8B
100
AcDbEntity
   8
MAIN
   6
CONTINUOUS
  62
      7
100
AcDbLine
  10
-17.98185
  20
1.76237
  30
0.0
  11
-16.89359
  21
1.76237
  31
0.0
   0
LINE
   5
8C
100
AcDbEntity
   8
MAIN
   6
CONTINUOUS
  62
      7
100
AcDbLine
  10
-18.78684
  20
3.65562
  30
0.0
  11
-18.78684
  21
2.56736
  31
0.0
   0
LINE
   5
8D
100
AcDbEntity
   8
MAIN
   6
CONTINUOUS
  62
      7
100
AcDbLine
  10
-18.78684
  20
0.95738
  30
0.0
  11
-18.78684
  21
-0.13088
  31
0.0
   0
ENDBLK
   5
8E
100
AcDbEntity
   8
MAIN
100
AcDbBlockEnd
   0
BLOCK
   5
8F
100
AcDbEntity
   8
MAIN
100
AcDbBlockBegin
   2
*G5
  70
      1
  10
0.0
  20
0.0
  30
0.0
   3

   1

   0
LINE
   5
90
100
AcDbEntity
   8
MAIN
   6
CONTINUOUS
  62
      7
100
AcDbLine
  10
-11.86867
  20
1.76237
  30
0.0
  11
-10.79535
  21
1.76237
  31
0.0
   0
LINE
   5
91
100
AcDbEntity
   8
MAIN
   6
CONTINUOUS
  62
      7
100
AcDbLine
  10
-11.33201
  20
1.22571
  30
0.0
  11
-11.33201
  21
2.29903
  31
0.0
   0
LINE
   5
92
100
AcDbEntity
   8
MAIN
   6
CONTINUOUS
  62
      7
100
AcDbLine
  10
-13.22526
  20
1.76237
  30
0.0
  11
-12.137
  21
1.76237
  31
0.0
   0
LINE
   5
93
100
AcDbEntity
   8
MAIN
   6
CONTINUOUS
  62
      7
100
AcDbLine
  10
-10.52702
  20
1.76237
  30
0.0
  11
-9.43876
  21
1.76237
  31
0.0
   0
LINE
   5
94
100
AcDbEntity
   8
MAIN
   6
CONTINUOUS
  62
      7
100
AcDbLine
  10
-11.33201
  20
3.65562
  30
0.0
  11
-11.33201
  21
2.56736
  31
0.0
   0
LINE
   5
95
100
AcDbEntity
   8
MAIN
   6
CONTINUOUS
  62
      7
100
AcDbLine
  10
-11.33201
  20
0.95738
  30
0.0
  11
-11.33201
  21
-0.13088
  31
0.0
   0
ENDBLK
   5
96
100
AcDbEntity
   8
MAIN
100
AcDbBlockEnd
   0
BLOCK
   5
97
100
AcDbEntity
   8
MAIN
100
AcDbBlockBegin
   2
*G6
  70
      1
  10
0.0
  20
0.0
  30
0.0
   3

   1

   0
LINE
   5
98
100
AcDbEntity
   8
MAIN
   6
CONTINUOUS
  62
      7
100
AcDbLine
  10
-7.36868
  20
1.76237
  30
0.0
  11
-6.29536
  21
1.76237
  31
0.0
   0
LINE
   5
99
100
AcDbEntity
   8
MAIN
   6
CONTINUOUS
  62
      7
100
AcDbLine
  10
-6.83202
  20
1.22571
  30
0.0
  11
-6.83202
  21
2.29903
  31
0.0
   0
LINE
   5
9A
100
AcDbEntity
   8
MAIN
   6
CONTINUOUS
  62
      7
100
AcDbLine
  10
-8.72527
  20
1.76237
  30
0.0
  11
-7.63701
  21
1.76237
  31
0.0
   0
LINE
   5
9B
100
AcDbEntity
   8
MAIN
   6
CONTINUOUS
  62
      7
100
AcDbLine
  10
-6.02703
  20
1.76237
  30
0.0
  11
-4.93877
  21
1.76237
  31
0.0
   0
LINE
   5
9C
100
AcDbEntity
   8
MAIN
   6
CONTINUOUS
  62
      7
100
AcDbLine
  10
-6.83202
  20
3.65562
  30
0.0
  11
-6.83202
  21
2.56736
  31
0.0
   0
LINE
   5
9D
100
AcDbEntity
   8
MAIN
   6
CONTINUOUS
  62
      7
100
AcDbLine
  10
-6.83202
  20
0.95738
  30
0.0
  11
-6.83202
  21
-0.13088
  31
0.0
   0
ENDBLK
   5
9E
100
AcDbEntity
   8
MAIN
100
AcDbBlockEnd
   0
BLOCK
   5
9F
100
AcDbEntity
   8
MAIN
100
AcDbBlockBegin
   2
*G7
  70
      1
  10
0.0
  20
0.0
  30
0.0
   3

   1

   0
LINE
   5
A0
100
AcDbEntity
   8
MAIN
   6
CONTINUOUS
  62
      7
100
AcDbLine
  10
-13.20701
  20
-2.07617
  30
0.0
  11
-11.70701
  21
-2.07617
  31
0.0
   0
LINE
   5
A1
100
AcDbEntity
   8
MAIN
   6
CONTINUOUS
  62
      7
100
AcDbLine
  10
-12.45701
  20
-2.82617
  30
0.0
  11
-12.45701
  21
-1.32617
  31
0.0
   0
ENDBLK
   5
A2
100
AcDbEntity
   8
MAIN
100
AcDbBlockEnd
   0
BLOCK
   5
A3
100
AcDbEntity
   8
MAIN
100
AcDbBlockBegin
   2
*G8
  70
      1
  10
0.0
  20
0.0
  30
0.0
   3

   1

   0
LINE
   5
A4
100
AcDbEntity
   8
MAIN
   6
CONTINUOUS
  62
      7
100
AcDbLine
  10
-6.45703
  20
-2.07616
  30
0.0
  11
-4.95703
  21
-2.07616
  31
0.0
   0
LINE
   5
A5
100
AcDbEntity
   8
MAIN
   6
CONTINUOUS
  62
      7
100
AcDbLine
  10
-5.70703
  20
-2.82616
  30
0.0
  11
-5.70703
  21
-1.32616
  31
0.0
   0
ENDBLK
   5
A6
100
AcDbEntity
   8
MAIN
100
AcDbBlockEnd
   0
BLOCK
   5
A7
100
AcDbEntity
   8
MAIN
100
AcDbBlockBegin
   2
*G9
  70
      1
  10
0.0
  20
0.0
  30
0.0
   3

   1

   0
LINE
   5
A8
100
AcDbEntity
   8
MAIN
   6
CONTINUOUS
  62
      7
100
AcDbLine
  10
-25.16183
  20
-2.07617
  30
0.0
  11
-23.66183
  21
-2.07617
  31
0.0
   0
LINE
   5
A9
100
AcDbEntity
   8
MAIN
   6
CONTINUOUS
  62
      7
100
AcDbLine
  10
-24.41183
  20
-2.82617
  30
0.0
  11
-24.41183
  21
-1.32617
  31
0.0
   0
ENDBLK
   5
AA
100
AcDbEntity
   8
MAIN
100
AcDbBlockEnd
   0
BLOCK
   5
AB
100
AcDbEntity
   8
MAIN
100
AcDbBlockBegin
   2
*G10
  70
      1
  10
0.0
  20
0.0
  30
0.0
   3

   1

   0
LINE
   5
AC
100
AcDbEntity
   8
MAIN
   6
CONTINUOUS
  62
      7
100
AcDbLine
  10
-18.41185
  20
-2.07616
  30
0.0
  11
-16.91185
  21
-2.07616
  31
0.0
   0
LINE
   5
AD
100
AcDbEntity
   8
MAIN
   6
CONTINUOUS
  62
      7
100
AcDbLine
  10
-17.66185
  20
-2.82616
  30
0.0
  11
-17.66185
  21
-1.32616
  31
0.0
   0
ENDBLK
   5
AE
100
AcDbEntity
   8
MAIN
100
AcDbBlockEnd
   0
BLOCK
   5
AF
100
AcDbEntity
   8
MAIN
100
AcDbBlockBegin
   2
*G11
  70
      1
  10
0.0
  20
0.0
  30
0.0
   3

   1

   0
LINE
   5
B0
100
AcDbEntity
   8
MAIN
   6
CONTINUOUS
  62
      7
100
AcDbLine
  10
-13.20701
  20
-2.07617
  30
0.0
  11
-11.70701
  21
-2.07617
  31
0.0
   0
LINE
   5
B1
100
AcDbEntity
   8
MAIN
   6
CONTINUOUS
  62
      7
100
AcDbLine
  10
-12.45701
  20
-2.82617
  30
0.0
  11
-12.45701
  21
-1.32617
  31
0.0
   0
ENDBLK
   5
B2
100
AcDbEntity
   8
MAIN
100
AcDbBlockEnd
   0
BLOCK
   5
B3
100
AcDbEntity
   8
MAIN
100
AcDbBlockBegin
   2
*G12
  70
      1
  10
0.0
  20
0.0
  30
0.0
   3

   1

   0
LINE
   5
B4
100
AcDbEntity
   8
MAIN
   6
CONTINUOUS
  62
      7
100
AcDbLine
  10
-6.45703
  20
-2.07616
  30
0.0
  11
-4.95703
  21
-2.07616
  31
0.0
   0
LINE
   5
B5
100
AcDbEntity
   8
MAIN
   6
CONTINUOUS
  62
      7
100
AcDbLine
  10
-5.70703
  20
-2.82616
  30
0.0
  11
-5.70703
  21
-1.32616
  31
0.0
   0
ENDBLK
   5
B6
100
AcDbEntity
   8
MAIN
100
AcDbBlockEnd
   0
BLOCK
   5
B7
100
AcDbEntity
   8
MAIN
100
AcDbBlockBegin
   2
*G13
  70
      1
  10
0.0
  20
0.0
  30
0.0
   3

   1

   0
TEXT
   5
B8
100
AcDbEntity
   8
MAIN
  62
      5
100
AcDbText
  10
-29.36776
  20
1.031
  30
0.0
  40
0.26666
   1
18.000"
  50
90.0
  41
0.6
  11
-29.36776
  21
1.031
  31
0.0
100
AcDbText
  73
      3
   0
ENDBLK
   5
B9
100
AcDbEntity
   8
MAIN
100
AcDbBlockEnd
   0
BLOCK
   5
BA
100
AcDbEntity
   8
MAIN
100
AcDbBlockBegin
   2
*G14
  70
      1
  10
0.0
  20
0.0
  30
0.0
   3

   1

   0
TEXT
   5
BB
100
AcDbEntity
   8
MAIN
  62
      5
100
AcDbText
  10
-15.99762
  20
-12.18235
  30
0.0
  40
0.26666
   1
24.000"
  41
0.6
  11
-15.99762
  21
-12.18235
  31
0.0
100
AcDbText
  73
      3
   0
ENDBLK
   5
BC
100
AcDbEntity
   8
MAIN
100
AcDbBlockEnd
   0
BLOCK
   5
BD
100
AcDbEntity
   8
MAIN
100
AcDbBlockBegin
   2
*G15
  70
      1
  10
0.0
  20
0.0
  30
0.0
   3

   1

   0
TEXT
   5
BE
100
AcDbEntity
   8
MAIN
  62
      5
100
AcDbText
  10
-9.62775
  20
12.74177
  30
0.0
  40
0.26666
   1
12.000"
  41
0.6
  11
-9.62775
  21
12.74177
  31
0.0
100
AcDbText
  73
      3
   0
ENDBLK
   5
BF
100
AcDbEntity
   8
MAIN
100
AcDbBlockEnd
   0
BLOCK
   5
C0
100
AcDbEntity
   8
MAIN
100
AcDbBlockBegin
   2
*G16
  70
      1
  10
0.0
  20
0.0
  30
0.0
   3

   1

   0
TEXT
   5
C1
100
AcDbEntity
   8
MAIN
  62
      5
100
AcDbText
  10
-15.53442
  20
11.90765
  30
0.0
  40
0.26666
   1
1.563"
  50
0.000504
  41
0.6
  11
-15.53442
  21
11.90765
  31
0.0
100
AcDbText
  73
      3
   0
ENDBLK
   5
C2
100
AcDbEntity
   8
MAIN
100
AcDbBlockEnd
   0
BLOCK
   5
C3
100
AcDbEntity
   8
MAIN
100
AcDbBlockBegin
   2
*G17
  70
      1
  10
0.0
  20
0.0
  30
0.0
   3

   1

   0
TEXT
   5
C4
100
AcDbEntity
   8
MAIN
  62
      5
100
AcDbText
  10
-6.23258
  20
6.60128
  30
0.0
  40
0.26666
   1
8.000"
  50
286.334503
  41
0.6
  11
-6.23258
  21
6.60128
  31
0.0
100
AcDbText
  73
      3
   0
ENDBLK
   5
C5
100
AcDbEntity
   8
MAIN
100
AcDbBlockEnd
   0
BLOCK
   5
C6
100
AcDbEntity
   8
MAIN
100
AcDbBlockBegin
   2
*G18
  70
      1
  10
0.0
  20
0.0
  30
0.0
   3

   1

   0
TEXT
   5
C7
100
AcDbEntity
   8
MAIN
  62
      5
100
AcDbText
  10
-4.73347
  20
5.05377
  30
0.0
  40
0.26666
   1
12.000"
  50
286.334503
  41
0.6
  11
-4.73347
  21
5.05377
  31
0.0
100
AcDbText
  73
      3
   0
ENDBLK
   5
C8
100
AcDbEntity
   8
MAIN
100
AcDbBlockEnd
   0
BLOCK
   5
C9
100
AcDbEntity
   8
MAIN
100
AcDbBlockBegin
   2
*G19
  70
      1
  10
0.0
  20
0.0
  30
0.0
   3

   1

   0
TEXT
   5
CA
100
AcDbEntity
   8
MAIN
  62
      5
100
AcDbText
  10
-13.67451
  20
6.23973
  30
0.0
  40
0.26666
   1
7.769"
  50
90.0
  41
0.6
  11
-13.67451
  21
6.23973
  31
0.0
100
AcDbText
  73
      3
   0
ENDBLK
   5
CB
100
AcDbEntity
   8
MAIN
100
AcDbBlockEnd
   0
BLOCK
   5
CC
100
AcDbEntity
   8
MAIN
100
AcDbBlockBegin
   2
*G20
  70
      1
  10
0.0
  20
0.0
  30
0.0
   3

   1

   0
TEXT
   5
CD
100
AcDbEntity
   8
MAIN
  62
      5
100
AcDbText
  10
-17.40943
  20
4.29099
  30
0.0
  40
0.26666
   1
ÿ 1.563"
  41
0.6
  11
-17.40943
  21
4.29099
  31
0.0
100
AcDbText
  73
      3
   0
ENDBLK
   5
CE
100
AcDbEntity
   8
MAIN
100
AcDbBlockEnd
   0
BLOCK
   5
CF
100
AcDbEntity
   8
MAIN
100
AcDbBlockBegin
   2
*G21
  70
      1
  10
0.0
  20
0.0
  30
0.0
   3

   1

   0
TEXT
   5
D0
100
AcDbEntity
   8
MAIN
  62
      5
100
AcDbText
  10
-19.10942
  20
10.45524
  30
0.0
  40
0.26666
   1
ÿ 1.000"
  41
0.6
  11
-19.10942
  21
10.45524
  31
0.0
100
AcDbText
  73
      3
   0
ENDBLK
   5
D1
100
AcDbEntity
   8
MAIN
100
AcDbBlockEnd
   0
BLOCK
   5
D2
100
AcDbEntity
   8
MAIN
100
AcDbBlockBegin
   2
*G22
  70
      1
  10
0.0
  20
0.0
  30
0.0
   3

   1

   0
TEXT
   5
D3
100
AcDbEntity
   8
MAIN
  62
      5
100
AcDbText
  10
-16.41184
  20
-0.69737
  30
0.0
  40
0.26666
   1
ÿ 1.063"
  41
0.6
  11
-16.41184
  21
-0.69737
  31
0.0
100
AcDbText
  73
      3
   0
ENDBLK
   5
D4
100
AcDbEntity
   8
MAIN
100
AcDbBlockEnd
   0
BLOCK
   5
D5
100
AcDbEntity
   8
MAIN
100
AcDbBlockBegin
   2
*G23
  70
      1
  10
0.0
  20
0.0
  30
0.0
   3

   1

   0
TEXT
   5
D6
100
AcDbEntity
   8
MAIN
  62
      5
100
AcDbText
  10
-13.58901
  20
1.34099
  30
0.0
  40
0.26666
   1
ÿ 1.563"
  41
0.6
  11
-13.58901
  21
1.34099
  31
0.0
100
AcDbText
  73
      3
   0
ENDBLK
   5
D7
100
AcDbEntity
   8
MAIN
100
AcDbBlockEnd
   0
BLOCK
   5
D8
100
AcDbEntity
   8
MAIN
100
AcDbBlockBegin
   2
*G24
  70
      1
  10
0.0
  20
0.0
  30
0.0
   3

   1

   0
TEXT
   5
D9
100
AcDbEntity
   8
MAIN
  62
      5
100
AcDbText
  10
-21.28861
  20
3.96697
  30
0.0
  40
0.26666
   1
33%%d
  50
359.999634
  41
0.6
  11
-21.28861
  21
3.96697
  31
0.0
100
AcDbText
  73
      3
   0
ENDBLK
   5
DA
100
AcDbEntity
   8
MAIN
100
AcDbBlockEnd
   0
BLOCK
   5
DB
100
AcDbEntity
   8
MAIN
100
AcDbBlockBegin
   2
*G25
  70
      1
  10
0.0
  20
0.0
  30
0.0
   3

   1

   0
TEXT
   5
DC
100
AcDbEntity
   8
MAIN
  62
      5
100
AcDbText
  10
-24.52313
  20
12.65067
  30
0.0
  40
0.26666
   1
6.023"
  41
0.6
  11
-24.52313
  21
12.65067
  31
0.0
100
AcDbText
  73
      3
   0
ENDBLK
   5
DD
100
AcDbEntity
   8
MAIN
100
AcDbBlockEnd
   0
BLOCK
   5
DE
100
AcDbEntity
   8
MAIN
100
AcDbBlockBegin
   2
*G26
  70
      1
  10
0.0
  20
0.0
  30
0.0
   3

   1

   0
TEXT
   5
DF
100
AcDbEntity
   8
MAIN
  62
      5
100
AcDbText
  10
-28.20109
  20
9.54439
  30
0.0
  40
0.26666
   1
1.160"
  50
90.0
  41
0.6
  11
-28.20109
  21
9.54439
  31
0.0
100
AcDbText
  73
      3
   0
ENDBLK
   5
E0
100
AcDbEntity
   8
MAIN
100
AcDbBlockEnd
   0
BLOCK
   5
E1
100
AcDbEntity
   8
MAIN
100
AcDbBlockBegin
   2
*G27
  70
      1
  10
0.0
  20
0.0
  30
0.0
   3

   1

   0
LINE
   5
E2
100
AcDbEntity
   8
MAIN
   6
CONTINUOUS
  62
      5
100
AcDbLine
  10
-17.55943
  20
-5.15068
  30
0.0
  11
-17.05943
  21
-5.15068
  31
0.0
   0
LINE
   5
E3
100
AcDbEntity
   8
MAIN
   6
CONTINUOUS
  62
      5
100
AcDbLine
  10
-17.30943
  20
-5.40068
  30
0.0
  11
-17.30943
  21
-4.90068
  31
0.0
   0
ENDBLK
   5
E4
100
AcDbEntity
   8
MAIN
100
AcDbBlockEnd
   0
BLOCK
   5
E5
100
AcDbEntity
   8
MAIN
100
AcDbBlockBegin
   2
*G28
  70
      1
  10
0.0
  20
0.0
  30
0.0
   3

   1

   0
LINE
   5
E6
100
AcDbEntity
   8
MAIN
   6
CONTINUOUS
  62
      5
100
AcDbLine
  10
-17.55943
  20
-6.90068
  30
0.0
  11
-17.05943
  21
-6.90068
  31
0.0
   0
LINE
   5
E7
100
AcDbEntity
   8
MAIN
   6
CONTINUOUS
  62
      5
100
AcDbLine
  10
-17.30943
  20
-7.15068
  30
0.0
  11
-17.30943
  21
-6.65068
  31
0.0
   0
ENDBLK
   5
E8
100
AcDbEntity
   8
MAIN
100
AcDbBlockEnd
   0
BLOCK
   5
E9
100
AcDbEntity
   8
MAIN
100
AcDbBlockBegin
   2
*G29
  70
      1
  10
0.0
  20
0.0
  30
0.0
   3

   1

   0
LINE
   5
EA
100
AcDbEntity
   8
MAIN
   6
CONTINUOUS
  62
      5
100
AcDbLine
  10
-13.05943
  20
-5.15068
  30
0.0
  11
-12.55943
  21
-5.15068
  31
0.0
   0
LINE
   5
EB
100
AcDbEntity
   8
MAIN
   6
CONTINUOUS
  62
      5
100
AcDbLine
  10
-12.80943
  20
-5.40068
  30
0.0
  11
-12.80943
  21
-4.90068
  31
0.0
   0
ENDBLK
   5
EC
100
AcDbEntity
   8
MAIN
100
AcDbBlockEnd
   0
BLOCK
   5
ED
100
AcDbEntity
   8
MAIN
100
AcDbBlockBegin
   2
*G30
  70
      1
  10
0.0
  20
0.0
  30
0.0
   3

   1

   0
LINE
   5
EE
100
AcDbEntity
   8
MAIN
   6
CONTINUOUS
  62
      5
100
AcDbLine
  10
-13.05943
  20
-6.90068
  30
0.0
  11
-12.55943
  21
-6.90068
  31
0.0
   0
LINE
   5
EF
100
AcDbEntity
   8
MAIN
   6
CONTINUOUS
  62
      5
100
AcDbLine
  10
-12.80943
  20
-7.15068
  30
0.0
  11
-12.80943
  21
-6.65068
  31
0.0
   0
ENDBLK
   5
F0
100
AcDbEntity
   8
MAIN
100
AcDbBlockEnd
   0
BLOCK
   5
F1
100
AcDbEntity
   8
MAIN
100
AcDbBlockBegin
   2
*G31
  70
      1
  10
0.0
  20
0.0
  30
0.0
   3

   1

   0
TEXT
   5
F2
100
AcDbEntity
   8
MAIN
  62
      5
100
AcDbText
  10
-15.53442
  20
-8.86235
  30
0.0
  40
0.26666
   1
4.500"
  41
0.6
  11
-15.53442
  21
-8.86235
  31
0.0
100
AcDbText
  73
      3
   0
ENDBLK
   5
F3
100
AcDbEntity
   8
MAIN
100
AcDbBlockEnd
   0
BLOCK
   5
F4
100
AcDbEntity
   8
MAIN
100
AcDbBlockBegin
   2
*G32
  70
      1
  10
0.0
  20
0.0
  30
0.0
   3

   1

   0
TEXT
   5
F5
100
AcDbEntity
   8
MAIN
  62
      5
100
AcDbText
  10
-11.75776
  20
-6.50067
  30
0.0
  40
0.26666
   1
1.750"
  50
90.0
  41
0.6
  11
-11.75776
  21
-6.50067
  31
0.0
100
AcDbText
  73
      3
   0
ENDBLK
   5
F6
100
AcDbEntity
   8
MAIN
100
AcDbBlockEnd
   0
BLOCK
   5
F7
100
AcDbEntity
   8
MAIN
100
AcDbBlockBegin
   2
*G33
  70
      1
  10
0.0
  20
0.0
  30
0.0
   3

   1

   0
TEXT
   5
F8
100
AcDbEntity
   8
MAIN
  62
      5
100
AcDbText
  10
-11.19814
  20
-8.88066
  30
0.0
  40
0.26666
   1
0.500"
  50
90.0
  41
0.6
  11
-11.19814
  21
-8.88066
  31
0.0
100
AcDbText
  73
      3
   0
ENDBLK
   5
F9
100
AcDbEntity
   8
MAIN
100
AcDbBlockEnd
   0
BLOCK
   5
FA
100
AcDbEntity
   8
MAIN
100
AcDbBlockBegin
   2
*G34
  70
      1
  10
0.0
  20
0.0
  30
0.0
   3

   1

   0
TEXT
   5
FB
100
AcDbEntity
   8
MAIN
  62
      5
100
AcDbText
  10
-15.75943
  20
-7.75901
  30
0.0
  40
0.26666
   1
ÿ 0.375"
  41
0.6
  11
-15.75943
  21
-7.75901
  31
0.0
100
AcDbText
  73
      3
   0
ENDBLK
   5
FC
100
AcDbEntity
   8
MAIN
100
AcDbBlockEnd
   0
BLOCK
   5
FD
100
AcDbEntity
   8
MAIN
100
AcDbBlockBegin
   2
*G35
  70
      1
  10
0.0
  20
0.0
  30
0.0
   3

   1

   0
LINE
   5
FE
100
AcDbEntity
   8
MAIN
   6
CONTINUOUS
  62
      7
100
AcDbLine
  10
23.60725
  20
3.00744
  30
0.0
  11
23.60725
  21
3.50744
  31
0.0
   0
LINE
   5
FF
100
AcDbEntity
   8
MAIN
   6
CONTINUOUS
  62
      7
100
AcDbLine
  10
23.85725
  20
3.25744
  30
0.0
  11
23.35725
  21
3.25744
  31
0.0
   0
LINE
   5
100
100
AcDbEntity
   8
MAIN
   6
CONTINUOUS
  62
      7
100
AcDbLine
  10
23.60725
  20
2.50743
  30
0.0
  11
23.60725
  21
2.88244
  31
0.0
   0
LINE
   5
101
100
AcDbEntity
   8
MAIN
   6
CONTINUOUS
  62
      7
100
AcDbLine
  10
23.60725
  20
3.63244
  30
0.0
  11
23.60725
  21
4.00745
  31
0.0
   0
LINE
   5
102
100
AcDbEntity
   8
MAIN
   6
CONTINUOUS
  62
      7
100
AcDbLine
  10
22.85724
  20
3.25744
  30
0.0
  11
23.23225
  21
3.25744
  31
0.0
   0
LINE
   5
103
100
AcDbEntity
   8
MAIN
   6
CONTINUOUS
  62
      7
100
AcDbLine
  10
23.98225
  20
3.25744
  30
0.0
  11
24.35726
  21
3.25744
  31
0.0
   0
ENDBLK
   5
104
100
AcDbEntity
   8
MAIN
100
AcDbBlockEnd
   0
BLOCK
   5
105
100
AcDbEntity
   8
MAIN
100
AcDbBlockBegin
   2
*G36
  70
      1
  10
0.0
  20
0.0
  30
0.0
   3

   1

   0
LINE
   5
106
100
AcDbEntity
   8
MAIN
   6
CONTINUOUS
  62
      7
100
AcDbLine
  10
19.60726
  20
3.00745
  30
0.0
  11
19.60726
  21
3.50745
  31
0.0
   0
LINE
   5
107
100
AcDbEntity
   8
MAIN
   6
CONTINUOUS
  62
      7
100
AcDbLine
  10
19.85726
  20
3.25745
  30
0.0
  11
19.35726
  21
3.25745
  31
0.0
   0
LINE
   5
108
100
AcDbEntity
   8
MAIN
   6
CONTINUOUS
  62
      7
100
AcDbLine
  10
19.60726
  20
2.25746
  30
0.0
  11
19.60726
  21
2.88245
  31
0.0
   0
LINE
   5
109
100
AcDbEntity
   8
MAIN
   6
CONTINUOUS
  62
      7
100
AcDbLine
  10
19.60726
  20
3.63245
  30
0.0
  11
19.60726
  21
4.25744
  31
0.0
   0
LINE
   5
10A
100
AcDbEntity
   8
MAIN
   6
CONTINUOUS
  62
      7
100
AcDbLine
  10
18.60727
  20
3.25745
  30
0.0
  11
19.23226
  21
3.25745
  31
0.0
   0
LINE
   5
10B
100
AcDbEntity
   8
MAIN
   6
CONTINUOUS
  62
      7
100
AcDbLine
  10
19.98226
  20
3.25745
  30
0.0
  11
20.60725
  21
3.25745
  31
0.0
   0
ENDBLK
   5
10C
100
AcDbEntity
   8
MAIN
100
AcDbBlockEnd
   0
BLOCK
   5
10D
100
AcDbEntity
   8
MAIN
100
AcDbBlockBegin
   2
*G37
  70
      1
  10
0.0
  20
0.0
  30
0.0
   3

   1

   0
LINE
   5
10E
100
AcDbEntity
   8
MAIN
   6
CONTINUOUS
  62
      7
100
AcDbLine
  10
11.60726
  20
3.00744
  30
0.0
  11
11.60726
  21
3.50744
  31
0.0
   0
LINE
   5
10F
100
AcDbEntity
   8
MAIN
   6
CONTINUOUS
  62
      7
100
AcDbLine
  10
11.85726
  20
3.25744
  30
0.0
  11
11.35726
  21
3.25744
  31
0.0
   0
LINE
   5
110
100
AcDbEntity
   8
MAIN
   6
CONTINUOUS
  62
      7
100
AcDbLine
  10
11.60726
  20
2.50745
  30
0.0
  11
11.60726
  21
2.88244
  31
0.0
   0
LINE
   5
111
100
AcDbEntity
   8
MAIN
   6
CONTINUOUS
  62
      7
100
AcDbLine
  10
11.60726
  20
3.63244
  30
0.0
  11
11.60726
  21
4.00743
  31
0.0
   0
LINE
   5
112
100
AcDbEntity
   8
MAIN
   6
CONTINUOUS
  62
      7
100
AcDbLine
  10
10.85727
  20
3.25744
  30
0.0
  11
11.23226
  21
3.25744
  31
0.0
   0
LINE
   5
113
100
AcDbEntity
   8
MAIN
   6
CONTINUOUS
  62
      7
100
AcDbLine
  10
11.98226
  20
3.25744
  30
0.0
  11
12.35725
  21
3.25744
  31
0.0
   0
ENDBLK
   5
114
100
AcDbEntity
   8
MAIN
100
AcDbBlockEnd
   0
BLOCK
   5
115
100
AcDbEntity
   8
MAIN
100
AcDbBlockBegin
   2
*G38
  70
      1
  10
0.0
  20
0.0
  30
0.0
   3

   1

   0
TEXT
   5
116
100
AcDbEntity
   8
MAIN
  62
      5
100
AcDbText
  10
6.6887
  20
2.78245
  30
0.0
  40
0.26666
   1
4.000"
  50
90.0
  41
0.6
  11
6.6887
  21
2.78245
  31
0.0
100
AcDbText
  73
      3
   0
ENDBLK
   5
117
100
AcDbEntity
   8
MAIN
100
AcDbBlockEnd
   0
BLOCK
   5
118
100
AcDbEntity
   8
MAIN
100
AcDbBlockBegin
   2
*G39
  70
      1
  10
0.0
  20
0.0
  30
0.0
   3

   1

   0
TEXT
   5
119
100
AcDbEntity
   8
MAIN
  62
      5
100
AcDbText
  10
17.03893
  20
8.81577
  30
0.0
  40
0.26666
   1
16.000"
  41
0.6
  11
17.03893
  21
8.81577
  31
0.0
100
AcDbText
  73
      3
   0
ENDBLK
   5
11A
100
AcDbEntity
   8
MAIN
100
AcDbBlockEnd
   0
BLOCK
   5
11B
100
AcDbEntity
   8
MAIN
100
AcDbBlockBegin
   2
*G40
  70
      1
  10
0.0
  20
0.0
  30
0.0
   3

   1

   0
TEXT
   5
11C
100
AcDbEntity
   8
MAIN
  62
      5
100
AcDbText
  10
8.20632
  20
1.28246
  30
0.0
  40
0.26666
   1
1.000"
  50
90.0
  41
0.6
  11
8.20632
  21
1.28246
  31
0.0
100
AcDbText
  73
      3
   0
ENDBLK
   5
11D
100
AcDbEntity
   8
MAIN
100
AcDbBlockEnd
   0
BLOCK
   5
11E
100
AcDbEntity
   8
MAIN
100
AcDbBlockBegin
   2
*G41
  70
      1
  10
0.0
  20
0.0
  30
0.0
   3

   1

   0
TEXT
   5
11F
100
AcDbEntity
   8
MAIN
  62
      5
100
AcDbText
  10
9.63227
  20
0.46577
  30
0.0
  40
0.26666
   1
1.000"
  41
0.6
  11
9.63227
  21
0.46577
  31
0.0
100
AcDbText
  73
      3
   0
ENDBLK
   5
120
100
AcDbEntity
   8
MAIN
100
AcDbBlockEnd
   0
BLOCK
   5
121
100
AcDbEntity
   8
MAIN
100
AcDbBlockBegin
   2
*G42
  70
      1
  10
0.0
  20
0.0
  30
0.0
   3

   1

   0
TEXT
   5
122
100
AcDbEntity
   8
MAIN
  62
      5
100
AcDbText
  10
13.89538
  20
6.44911
  30
0.0
  40
0.26666
   1
ÿ 1.000"
  41
0.6
  11
13.89538
  21
6.44911
  31
0.0
100
AcDbText
  73
      3
   0
ENDBLK
   5
123
100
AcDbEntity
   8
MAIN
100
AcDbBlockEnd
   0
BLOCK
   5
124
100
AcDbEntity
   8
MAIN
100
AcDbBlockBegin
   2
*G43
  70
      1
  10
0.0
  20
0.0
  30
0.0
   3

   1

   0
TEXT
   5
125
100
AcDbEntity
   8
MAIN
  62
      5
100
AcDbText
  10
21.89706
  20
9.84912
  30
0.0
  40
0.26666
   1
ÿ 1.500"
  41
0.6
  11
21.89706
  21
9.84912
  31
0.0
100
AcDbText
  73
      3
   0
ENDBLK
   5
126
100
AcDbEntity
   8
MAIN
100
AcDbBlockEnd
   0
BLOCK
   5
127
100
AcDbEntity
   8
MAIN
100
AcDbBlockBegin
   2
*G44
  70
      1
  10
0.0
  20
0.0
  30
0.0
   3

   1

   0
TEXT
   5
128
100
AcDbEntity
   8
MAIN
  62
      5
100
AcDbText
  10
23.3802
  20
6.39912
  30
0.0
  40
0.26666
   1
ÿ 1.000"
  41
0.6
  11
23.3802
  21
6.39912
  31
0.0
100
AcDbText
  73
      3
   0
ENDBLK
   5
129
100
AcDbEntity
   8
MAIN
100
AcDbBlockEnd
   0
BLOCK
   5
12A
100
AcDbEntity
   8
MAIN
100
AcDbBlockBegin
   2
*G45
  70
      1
  10
0.0
  20
0.0
  30
0.0
   3

   1

   0
TEXT
   5
12B
100
AcDbEntity
   8
MAIN
  62
      5
100
AcDbText
  10
27.0387
  20
1.78245
  30
0.0
  40
0.26666
   1
2.000"
  50
90.0
  41
0.6
  11
27.0387
  21
1.78245
  31
0.0
100
AcDbText
  73
      3
   0
ENDBLK
   5
12C
100
AcDbEntity
   8
MAIN
100
AcDbBlockEnd
   0
BLOCK
   5
12D
100
AcDbEntity
   8
MAIN
100
AcDbBlockBegin
   2
*G46
  70
      1
  10
0.0
  20
0.0
  30
0.0
   3

   1

   0
TEXT
   5
12E
100
AcDbEntity
   8
MAIN
  62
      5
100
AcDbText
  10
24.13225
  20
-0.33423
  30
0.0
  40
0.26666
   1
2.000"
  50
0.000504
  41
0.6
  11
24.13225
  21
-0.33423
  31
0.0
100
AcDbText
  73
      3
   0
ENDBLK
   5
12F
100
AcDbEntity
   8
MAIN
100
AcDbBlockEnd
   0
BLOCK
   5
130
100
AcDbEntity
   8
MAIN
100
AcDbBlockBegin
   2
*G47
  70
      1
  10
0.0
  20
0.0
  30
0.0
   3

   1

   0
TEXT
   5
131
100
AcDbEntity
   8
MAIN
  62
      5
100
AcDbText
  10
21.13226
  20
-1.83423
  30
0.0
  40
0.26666
   1
4.000"
  50
0.000504
  41
0.6
  11
21.13226
  21
-1.83423
  31
0.0
100
AcDbText
  73
      3
   0
ENDBLK
   5
132
100
AcDbEntity
   8
MAIN
100
AcDbBlockEnd
   0
BLOCK
   5
133
100
AcDbEntity
   8
MAIN
100
AcDbBlockBegin
   2
*G48
  70
      1
  10
0.0
  20
0.0
  30
0.0
   3

   1

   0
TEXT
   5
134
100
AcDbEntity
   8
MAIN
  62
      5
100
AcDbText
  10
15.13227
  20
-0.37781
  30
0.0
  40
0.26666
   1
8.000"
  50
0.000504
  41
0.6
  11
15.13227
  21
-0.37781
  31
0.0
100
AcDbText
  73
      3
   0
ENDBLK
   5
135
100
AcDbEntity
   8
MAIN
100
AcDbBlockEnd
   0
BLOCK
   5
136
100
AcDbEntity
   8
MAIN
100
AcDbBlockBegin
   2
*G49
  70
      1
  10
0.0
  20
0.0
  30
0.0
   3

   1

   0
TEXT
   5
137
100
AcDbEntity
   8
MAIN
  62
      5
100
AcDbText
  10
27.44286
  20
-11.89255
  30
0.0
  40
0.26666
   1
3.750"
  50
90.0
  41
0.6
  11
27.44286
  21
-11.89255
  31
0.0
100
AcDbText
  73
      3
   0
ENDBLK
   5
138
100
AcDbEntity
   8
MAIN
100
AcDbBlockEnd
   0
BLOCK
   5
139
100
AcDbEntity
   8
MAIN
100
AcDbBlockBegin
   2
*G50
  70
      1
  10
0.0
  20
0.0
  30
0.0
   3

   1

   0
TEXT
   5
13A
100
AcDbEntity
   8
MAIN
  62
      5
100
AcDbText
  10
29.04286
  20
-9.26755
  30
0.0
  40
0.26666
   1
9.000"
  50
90.0
  41
0.6
  11
29.04286
  21
-9.26755
  31
0.0
100
AcDbText
  73
      3
   0
ENDBLK
   5
13B
100
AcDbEntity
   8
MAIN
100
AcDbBlockEnd
   0
BLOCK
   5
13C
100
AcDbEntity
   8
MAIN
100
AcDbBlockBegin
   2
*G51
  70
      1
  10
0.0
  20
0.0
  30
0.0
   3

   1

   0
TEXT
   5
13D
100
AcDbEntity
   8
MAIN
  62
      5
100
AcDbText
  10
19.13227
  20
-15.23423
  30
0.0
  40
0.26666
   1
1.500"
  41
0.6
  11
19.13227
  21
-15.23423
  31
0.0
100
AcDbText
  73
      3
   0
ENDBLK
   5
13E
100
AcDbEntity
   8
MAIN
100
AcDbBlockEnd
   0
BLOCK
   5
13F
100
AcDbEntity
   8
MAIN
100
AcDbBlockBegin
   2
*G52
  70
      1
  10
0.0
  20
0.0
  30
0.0
   3

   1

   0
TEXT
   5
140
100
AcDbEntity
   8
MAIN
  62
      5
100
AcDbText
  10
17.45084
  20
-15.79254
  30
0.0
  40
0.26666
   1
0.250"
  50
90.0
  41
0.6
  11
17.45084
  21
-15.79254
  31
0.0
100
AcDbText
  73
      3
   0
ENDBLK
   5
141
100
AcDbEntity
   8
MAIN
100
AcDbBlockEnd
   0
BLOCK
   5
142
100
AcDbEntity
   8
MAIN
100
AcDbBlockBegin
   2
*G53
  70
      1
  10
0.0
  20
0.0
  30
0.0
   3

   1

   0
LINE
   5
143
100
AcDbEntity
   8
MAIN
   6
CONTINUOUS
  62
      5
100
AcDbLine
  10
-26.30943
  20
-5.90068
  30
0.0
  11
-25.80943
  21
-5.90068
  31
0.0
   0
LINE
   5
144
100
AcDbEntity
   8
MAIN
   6
CONTINUOUS
  62
      5
100
AcDbLine
  10
-26.05943
  20
-6.15068
  30
0.0
  11
-26.05943
  21
-5.65068
  31
0.0
   0
ENDBLK
   5
145
100
AcDbEntity
   8
MAIN
100
AcDbBlockEnd
   0
BLOCK
   5
146
100
AcDbEntity
   8
MAIN
100
AcDbBlockBegin
   2
*G54
  70
      1
  10
0.0
  20
0.0
  30
0.0
   3

   1

   0
LINE
   5
147
100
AcDbEntity
   8
MAIN
   6
CONTINUOUS
  62
      5
100
AcDbLine
  10
-26.30943
  20
9.09932
  30
0.0
  11
-25.80943
  21
9.09932
  31
0.0
   0
LINE
   5
148
100
AcDbEntity
   8
MAIN
   6
CONTINUOUS
  62
      5
100
AcDbLine
  10
-26.05943
  20
8.84932
  30
0.0
  11
-26.05943
  21
9.34932
  31
0.0
   0
ENDBLK
   5
149
100
AcDbEntity
   8
MAIN
100
AcDbBlockEnd
   0
BLOCK
   5
14A
100
AcDbEntity
   8
MAIN
100
AcDbBlockBegin
   2
*G55
  70
      1
  10
0.0
  20
0.0
  30
0.0
   3

   1

   0
LINE
   5
14B
100
AcDbEntity
   8
MAIN
   6
CONTINUOUS
  62
      5
100
AcDbLine
  10
-4.30943
  20
9.09932
  30
0.0
  11
-3.80943
  21
9.09932
  31
0.0
   0
LINE
   5
14C
100
AcDbEntity
   8
MAIN
   6
CONTINUOUS
  62
      5
100
AcDbLine
  10
-4.05943
  20
8.84932
  30
0.0
  11
-4.05943
  21
9.34932
  31
0.0
   0
ENDBLK
   5
14D
100
AcDbEntity
   8
MAIN
100
AcDbBlockEnd
   0
BLOCK
   5
14E
100
AcDbEntity
   8
MAIN
100
AcDbBlockBegin
   2
*G56
  70
      1
  10
0.0
  20
0.0
  30
0.0
   3

   1

   0
LINE
   5
14F
100
AcDbEntity
   8
MAIN
   6
CONTINUOUS
  62
      5
100
AcDbLine
  10
-4.30943
  20
-5.90068
  30
0.0
  11
-3.80943
  21
-5.90068
  31
0.0
   0
LINE
   5
150
100
AcDbEntity
   8
MAIN
   6
CONTINUOUS
  62
      5
100
AcDbLine
  10
-4.05943
  20
-6.15068
  30
0.0
  11
-4.05943
  21
-5.65068
  31
0.0
   0
ENDBLK
   5
151
100
AcDbEntity
   8
MAIN
100
AcDbBlockEnd
   0
BLOCK
   5
152
100
AcDbEntity
   8
MAIN
100
AcDbBlockBegin
   2
*G57
  70
      1
  10
0.0
  20
0.0
  30
0.0
   3

   1

   0
TEXT
   5
153
100
AcDbEntity
   8
MAIN
  62
      5
100
AcDbText
  10
-0.96136
  20
-7.20901
  30
0.0
  40
0.26666
   1
ÿ 0.375"
  41
0.6
  11
-0.96136
  21
-7.20901
  31
0.0
100
AcDbText
  73
      3
   0
ENDBLK
   5
154
100
AcDbEntity
   8
MAIN
100
AcDbBlockEnd
   0
BLOCK
   5
155
100
AcDbEntity
   8
MAIN
100
AcDbBlockBegin
   2
*G58
  70
      1
  10
0.0
  20
0.0
  30
0.0
   3

   1

   0
TEXT
   5
156
100
AcDbEntity
   8
MAIN
  62
      5
100
AcDbText
  10
-4.03442
  20
11.88006
  30
0.0
  40
0.26666
   1
1.000"
  41
0.6
  11
-4.03442
  21
11.88006
  31
0.0
100
AcDbText
  73
      3
   0
ENDBLK
   5
157
100
AcDbEntity
   8
MAIN
100
AcDbBlockEnd
   0
BLOCK
   5
158
100
AcDbEntity
   8
MAIN
100
AcDbBlockBegin
   2
*G59
  70
      1
  10
0.0
  20
0.0
  30
0.0
   3

   1

   0
TEXT
   5
159
100
AcDbEntity
   8
MAIN
  62
      5
100
AcDbText
  10
-2.15321
  20
9.37433
  30
0.0
  40
0.26666
   1
1.500"
  50
90.0
  41
0.6
  11
-2.15321
  21
9.37433
  31
0.0
100
AcDbText
  73
      3
   0
ENDBLK
   5
15A
100
AcDbEntity
   8
MAIN
100
AcDbBlockEnd
   0
ENDSEC
   0
SECTION
   2
ENTITIES
   0
POLYLINE
   5
15B
100
AcDbEntity
   8
MAIN
   6
CONTINUOUS
  62
      7
100
AcDb2dPolyline
  66
      1
  10
0.0
  20
0.0
  30
0.0
  75
      5
   0
VERTEX
   5
15C
100
AcDbEntity
   8
MAIN
   6
CONTINUOUS
  62
      7
100
AcDbVertex
100
AcDb2dVertex
  10
217.987147
  20
132.09071
  30
0.0
   0
VERTEX
   5
15D
100
AcDbEntity
   8
MAIN
   6
CONTINUOUS
  62
      7
100
AcDbVertex
100
AcDb2dVertex
  10
218.187147
  20
131.96571
  30
0.0
   0
VERTEX
   5
15E
100
AcDbEntity
   8
MAIN
   6
CONTINUOUS
  62
      7
100
AcDbVertex
100
AcDb2dVertex
  10
218.787147
  20
131.96571
  30
0.0
   0
VERTEX
   5
15F
100
AcDbEntity
   8
MAIN
   6
CONTINUOUS
  62
      7
100
AcDbVertex
100
AcDb2dVertex
  10
218.933017
  20
132.05946
  30
0.0
   0
VERTEX
   5
160
100
AcDbEntity
   8
MAIN
   6
CONTINUOUS
  62
      7
100
AcDbVertex
100
AcDb2dVertex
  10
218.878887
  20
132.09071
  30
0.0
   0
SEQEND
   5
161
100
AcDbEntity
   8
MAIN
   6
CONTINUOUS
   0
POLYLINE
   5
162
100
AcDbEntity
   8
MAIN
   6
CONTINUOUS
  62
      7
100
AcDb2dPolyline
  66
      1
  10
0.0
  20
0.0
  30
0.0
  75
      5
   0
VERTEX
   5
163
100
AcDbEntity
   8
MAIN
   6
CONTINUOUS
  62
      7
100
AcDbVertex
100
AcDb2dVertex
  10
218.987147
  20
135.65321
  30
0.0
   0
VERTEX
   5
164
100
AcDbEntity
   8
MAIN
   6
CONTINUOUS
  62
      7
100
AcDbVertex
100
AcDb2dVertex
  10
218.878897
  20
135.71571
  30
0.0
   0
VERTEX
   5
165
100
AcDbEntity
   8
MAIN
   6
CONTINUOUS
  62
      7
100
AcDbVertex
100
AcDb2dVertex
  10
218.095407
  20
135.71571
  30
0.0
   0
VERTEX
   5
166
100
AcDbEntity
   8
MAIN
   6
CONTINUOUS
  62
      7
100
AcDbVertex
100
AcDb2dVertex
  10
218.041277
  20
135.68446
  30
0.0
   0
VERTEX
   5
167
100
AcDbEntity
   8
MAIN
   6
CONTINUOUS
  62
      7
100
AcDbVertex
100
AcDb2dVertex
  10
218.095407
  20
135.65321
  30
0.0
   0
SEQEND
   5
168
100
AcDbEntity
   8
MAIN
   6
CONTINUOUS
   0
POLYLINE
   5
169
100
AcDbEntity
   8
MAIN
   6
CONTINUOUS
  62
      7
100
AcDb2dPolyline
  66
      1
  10
0.0
  20
0.0
  30
0.0
  70
      1
  75
      5
   0
VERTEX
   5
16A
100
AcDbEntity
   8
MAIN
   6
CONTINUOUS
  62
      7
100
AcDbVertex
100
AcDb2dVertex
  10
218.933017
  20
132.05946
  30
0.0
   0
VERTEX
   5
16B
100
AcDbEntity
   8
MAIN
   6
CONTINUOUS
  62
      7
100
AcDbVertex
100
AcDb2dVertex
  10
218.487147
  20
132.05946
  30
0.0
   0
VERTEX
   5
16C
100
AcDbEntity
   8
MAIN
   6
CONTINUOUS
  62
      7
100
AcDbVertex
100
AcDb2dVertex
  10
218.878897
  20
132.09071
  30
0.0
   0
VERTEX
   5
16D
100
AcDbEntity
   8
MAIN
   6
CONTINUOUS
  62
      7
100
AcDbVertex
100
AcDb2dVertex
  10
218.933027
  20
132.05946
  30
0.0
   0
SEQEND
   5
16E
100
AcDbEntity
   8
MAIN
   6
CONTINUOUS
   0
POLYLINE
   5
16F
100
AcDbEntity
   8
MAIN
   6
CONTINUOUS
  62
      7
100
AcDb2dPolyline
  66
      1
  10
0.0
  20
0.0
  30
0.0
  75
      5
   0
VERTEX
   5
170
100
AcDbEntity
   8
MAIN
   6
CONTINUOUS
  62
      7
100
AcDbVertex
100
AcDb2dVertex
  10
218.878897
  20
132.09071
  30
0.0
   0
VERTEX
   5
171
100
AcDbEntity
   8
MAIN
   6
CONTINUOUS
  62
      7
100
AcDbVertex
100
AcDb2dVertex
  10
218.987147
  20
132.15321
  30
0.0
   0
VERTEX
   5
172
100
AcDbEntity
   8
MAIN
   6
CONTINUOUS
  62
      7
100
AcDbVertex
100
AcDb2dVertex
  10
217.987147
  20
132.09071
  30
0.0
   0
SEQEND
   5
173
100
AcDbEntity
   8
MAIN
   6
CONTINUOUS
   0
POLYLINE
   5
174
100
AcDbEntity
   8
MAIN
   6
CONTINUOUS
  62
      7
100
AcDb2dPolyline
  66
      1
  10
0.0
  20
0.0
  30
0.0
  70
      1
  75
      5
   0
VERTEX
   5
175
100
AcDbEntity
   8
MAIN
   6
CONTINUOUS
  62
      7
100
AcDbVertex
100
AcDb2dVertex
  10
217.987147
  20
132.09071
  30
0.0
   0
VERTEX
   5
176
100
AcDbEntity
   8
MAIN
   6
CONTINUOUS
  62
      7
100
AcDbVertex
100
AcDb2dVertex
  10
218.095397
  20
132.15321
  30
0.0
   0
VERTEX
   5
177
100
AcDbEntity
   8
MAIN
   6
CONTINUOUS
  62
      7
100
AcDbVertex
100
AcDb2dVertex
  10
218.878887
  20
132.21571
  30
0.0
   0
VERTEX
   5
178
100
AcDbEntity
   8
MAIN
   6
CONTINUOUS
  62
      7
100
AcDbVertex
100
AcDb2dVertex
  10
218.987137
  20
132.15321
  30
0.0
   0
SEQEND
   5
179
100
AcDbEntity
   8
MAIN
   6
CONTINUOUS
   0
POLYLINE
   5
17A
100
AcDbEntity
   8
MAIN
   6
CONTINUOUS
  62
      7
100
AcDb2dPolyline
  66
      1
  10
0.0
  20
0.0
  30
0.0
  70
      1
  75
      5
   0
VERTEX
   5
17B
100
AcDbEntity
   8
MAIN
   6
CONTINUOUS
  62
      7
100
AcDbVertex
100
AcDb2dVertex
  10
218.878887
  20
132.21571
  30
0.0
   0
VERTEX
   5
17C
100
AcDbEntity
   8
MAIN
   6
CONTINUOUS
  62
      7
100
AcDbVertex
100
AcDb2dVertex
  10
218.987137
  20
132.27821
  30
0.0
   0
VERTEX
   5
17D
100
AcDbEntity
   8
MAIN
   6
CONTINUOUS
  62
      7
100
AcDbVertex
100
AcDb2dVertex
  10
217.987137
  20
132.21571
  30
0.0
   0
VERTEX
   5
17E
100
AcDbEntity
   8
MAIN
   6
CONTINUOUS
  62
      7
100
AcDbVertex
100
AcDb2dVertex
  10
218.095387
  20
132.15321
  30
0.0
   0
SEQEND
   5
17F
100
AcDbEntity
   8
MAIN
   6
CONTINUOUS
   0
POLYLINE
   5
180
100
AcDbEntity
   8
MAIN
   6
CONTINUOUS
  62
      7
100
AcDb2dPolyline
  66
      1
  10
0.0
  20
0.0
  30
0.0
  70
      1
  75
      5
   0
VERTEX
   5
181
100
AcDbEntity
   8
MAIN
   6
CONTINUOUS
  62
      7
100
AcDbVertex
100
AcDb2dVertex
  10
217.987137
  20
132.21571
  30
0.0
   0
VERTEX
   5
182
100
AcDbEntity
   8
MAIN
   6
CONTINUOUS
  62
      7
100
AcDbVertex
100
AcDb2dVertex
  10
218.095387
  20
132.27821
  30
0.0
   0
VERTEX
   5
183
100
AcDbEntity
   8
MAIN
   6
CONTINUOUS
  62
      7
100
AcDbVertex
100
AcDb2dVertex
  10
218.878877
  20
132.34071
  30
0.0
   0
VERTEX
   5
184
100
AcDbEntity
   8
MAIN
   6
CONTINUOUS
  62
      7
100
AcDbVertex
100
AcDb2dVertex
  10
218.987127
  20
132.27821
  30
0.0
   0
SEQEND
   5
185
100
AcDbEntity
   8
MAIN
   6
CONTINUOUS
   0
POLYLINE
   5
186
100
AcDbEntity
   8
MAIN
   6
CONTINUOUS
  62
      7
100
AcDb2dPolyline
  66
      1
  10
0.0
  20
0.0
  30
0.0
  70
      1
  75
      5
   0
VERTEX
   5
187
100
AcDbEntity
   8
MAIN
   6
CONTINUOUS
  62
      7
100
AcDbVertex
100
AcDb2dVertex
  10
218.878877
  20
132.34071
  30
0.0
   0
VERTEX
   5
188
100
AcDbEntity
   8
MAIN
   6
CONTINUOUS
  62
      7
100
AcDbVertex
100
AcDb2dVertex
  10
218.987127
  20
132.40321
  30
0.0
   0
VERTEX
   5
189
100
AcDbEntity
   8
MAIN
   6
CONTINUOUS
  62
      7
100
AcDbVertex
100
AcDb2dVertex
  10
217.987127
  20
132.34071
  30
0.0
   0
VERTEX
   5
18A
100
AcDbEntity
   8
MAIN
   6
CONTINUOUS
  62
      7
100
AcDbVertex
100
AcDb2dVertex
  10
218.095377
  20
132.27821
  30
0.0
   0
SEQEND
   5
18B
100
AcDbEntity
   8
MAIN
   6
CONTINUOUS
   0
POLYLINE
   5
18C
100
AcDbEntity
   8
MAIN
   6
CONTINUOUS
  62
      7
100
AcDb2dPolyline
  66
      1
  10
0.0
  20
0.0
  30
0.0
  70
      1
  75
      5
   0
VERTEX
   5
18D
100
AcDbEntity
   8
MAIN
   6
CONTINUOUS
  62
      7
100
AcDbVertex
100
AcDb2dVertex
  10
217.987127
  20
132.34071
  30
0.0
   0
VERTEX
   5
18E
100
AcDbEntity
   8
MAIN
   6
CONTINUOUS
  62
      7
100
AcDbVertex
100
AcDb2dVertex
  10
218.095377
  20
132.40321
  30
0.0
   0
VERTEX
   5
18F
100
AcDbEntity
   8
MAIN
   6
CONTINUOUS
  62
      7
100
AcDbVertex
100
AcDb2dVertex
  10
218.878867
  20
132.46571
  30
0.0
   0
VERTEX
   5
190
100
AcDbEntity
   8
MAIN
   6
CONTINUOUS
  62
      7
100
AcDbVertex
100
AcDb2dVertex
  10
218.987117
  20
132.40321
  30
0.0
   0
SEQEND
   5
191
100
AcDbEntity
   8
MAIN
   6
CONTINUOUS
   0
POLYLINE
   5
192
100
AcDbEntity
   8
MAIN
   6
CONTINUOUS
  62
      7
100
AcDb2dPolyline
  66
      1
  10
0.0
  20
0.0
  30
0.0
  70
      1
  75
      5
   0
VERTEX
   5
193
100
AcDbEntity
   8
MAIN
   6
CONTINUOUS
  62
      7
100
AcDbVertex
100
AcDb2dVertex
  10
218.878867
  20
132.46571
  30
0.0
   0
VERTEX
   5
194
100
AcDbEntity
   8
MAIN
   6
CONTINUOUS
  62
      7
100
AcDbVertex
100
AcDb2dVertex
  10
218.987117
  20
132.52821
  30
0.0
   0
VERTEX
   5
195
100
AcDbEntity
   8
MAIN
   6
CONTINUOUS
  62
      7
100
AcDbVertex
100
AcDb2dVertex
  10
217.987117
  20
132.46571
  30
0.0
   0
VERTEX
   5
196
100
AcDbEntity
   8
MAIN
   6
CONTINUOUS
  62
      7
100
AcDbVertex
100
AcDb2dVertex
  10
218.095367
  20
132.40321
  30
0.0
   0
SEQEND
   5
197
100
AcDbEntity
   8
MAIN
   6
CONTINUOUS
   0
POLYLINE
   5
198
100
AcDbEntity
   8
MAIN
   6
CONTINUOUS
  62
      7
100
AcDb2dPolyline
  66
      1
  10
0.0
  20
0.0
  30
0.0
  70
      1
  75
      5
   0
VERTEX
   5
199
100
AcDbEntity
   8
MAIN
   6
CONTINUOUS
  62
      7
100
AcDbVertex
100
AcDb2dVertex
  10
217.987117
  20
132.46571
  30
0.0
   0
VERTEX
   5
19A
100
AcDbEntity
   8
MAIN
   6
CONTINUOUS
  62
      7
100
AcDbVertex
100
AcDb2dVertex
  10
218.095367
  20
132.52821
  30
0.0
   0
VERTEX
   5
19B
100
AcDbEntity
   8
MAIN
   6
CONTINUOUS
  62
      7
100
AcDbVertex
100
AcDb2dVertex
  10
218.878857
  20
132.59071
  30
0.0
   0
VERTEX
   5
19C
100
AcDbEntity
   8
MAIN
   6
CONTINUOUS
  62
      7
100
AcDbVertex
100
AcDb2dVertex
  10
218.987107
  20
132.52821
  30
0.0
   0
SEQEND
   5
19D
100
AcDbEntity
   8
MAIN
   6
CONTINUOUS
   0
POLYLINE
   5
19E
100
AcDbEntity
   8
MAIN
   6
CONTINUOUS
  62
      7
100
AcDb2dPolyline
  66
      1
  10
0.0
  20
0.0
  30
0.0
  70
      1
  75
      5
   0
VERTEX
   5
19F
100
AcDbEntity
   8
MAIN
   6
CONTINUOUS
  62
      7
100
AcDbVertex
100
AcDb2dVertex
  10
218.878857
  20
132.59071
  30
0.0
   0
VERTEX
   5
1A0
100
AcDbEntity
   8
MAIN
   6
CONTINUOUS
  62
      7
100
AcDbVertex
100
AcDb2dVertex
  10
218.987107
  20
132.65321
  30
0.0
   0
VERTEX
   5
1A1
100
AcDbEntity
   8
MAIN
   6
CONTINUOUS
  62
      7
100
AcDbVertex
100
AcDb2dVertex
  10
217.987107
  20
132.59071
  30
0.0
   0
VERTEX
   5
1A2
100
AcDbEntity
   8
MAIN
   6
CONTINUOUS
  62
      7
100
AcDbVertex
100
AcDb2dVertex
  10
218.095357
  20
132.52821
  30
0.0
   0
SEQEND
   5
1A3
100
AcDbEntity
   8
MAIN
   6
CONTINUOUS
   0
POLYLINE
   5
1A4
100
AcDbEntity
   8
MAIN
   6
CONTINUOUS
  62
      7
100
AcDb2dPolyline
  66
      1
  10
0.0
  20
0.0
  30
0.0
  70
      1
  75
      5
   0
VERTEX
   5
1A5
100
AcDbEntity
   8
MAIN
   6
CONTINUOUS
  62
      7
100
AcDbVertex
100
AcDb2dVertex
  10
217.987107
  20
132.59071
  30
0.0
   0
VERTEX
   5
1A6
100
AcDbEntity
   8
MAIN
   6
CONTINUOUS
  62
      7
100
AcDbVertex
100
AcDb2dVertex
  10
218.095357
  20
132.65321
  30
0.0
   0
VERTEX
   5
1A7
100
AcDbEntity
   8
MAIN
   6
CONTINUOUS
  62
      7
100
AcDbVertex
100
AcDb2dVertex
  10
218.878847
  20
132.71571
  30
0.0
   0
VERTEX
   5
1A8
100
AcDbEntity
   8
MAIN
   6
CONTINUOUS
  62
      7
100
AcDbVertex
100
AcDb2dVertex
  10
218.987097
  20
132.65321
  30
0.0
   0
SEQEND
   5
1A9
100
AcDbEntity
   8
MAIN
   6
CONTINUOUS
   0
POLYLINE
   5
1AA
100
AcDbEntity
   8
MAIN
   6
CONTINUOUS
  62
      7
100
AcDb2dPolyline
  66
      1
  10
0.0
  20
0.0
  30
0.0
  70
      1
  75
      5
   0
VERTEX
   5
1AB
100
AcDbEntity
   8
MAIN
   6
CONTINUOUS
  62
      7
100
AcDbVertex
100
AcDb2dVertex
  10
218.878847
  20
132.71571
  30
0.0
   0
VERTEX
   5
1AC
100
AcDbEntity
   8
MAIN
   6
CONTINUOUS
  62
      7
100
AcDbVertex
100
AcDb2dVertex
  10
218.987097
  20
132.77821
  30
0.0
   0
VERTEX
   5
1AD
100
AcDbEntity
   8
MAIN
   6
CONTINUOUS
  62
      7
100
AcDbVertex
100
AcDb2dVertex
  10
217.987097
  20
132.71571
  30
0.0
   0
VERTEX
   5
1AE
100
AcDbEntity
   8
MAIN
   6
CONTINUOUS
  62
      7
100
AcDbVertex
100
AcDb2dVertex
  10
218.095347
  20
132.65321
  30
0.0
   0
SEQEND
   5
1AF
100
AcDbEntity
   8
MAIN
   6
CONTINUOUS
   0
POLYLINE
   5
1B0
100
AcDbEntity
   8
MAIN
   6
CONTINUOUS
  62
      7
100
AcDb2dPolyline
  66
      1
  10
0.0
  20
0.0
  30
0.0
  70
      1
  75
      5
   0
VERTEX
   5
1B1
100
AcDbEntity
   8
MAIN
   6
CONTINUOUS
  62
      7
100
AcDbVertex
100
AcDb2dVertex
  10
217.987097
  20
132.71571
  30
0.0
   0
VERTEX
   5
1B2
100
AcDbEntity
   8
MAIN
   6
CONTINUOUS
  62
      7
100
AcDbVertex
100
AcDb2dVertex
  10
218.095347
  20
132.77821
  30
0.0
   0
VERTEX
   5
1B3
100
AcDbEntity
   8
MAIN
   6
CONTINUOUS
  62
      7
100
AcDbVertex
100
AcDb2dVertex
  10
218.878837
  20
132.84071
  30
0.0
   0
VERTEX
   5
1B4
100
AcDbEntity
   8
MAIN
   6
CONTINUOUS
  62
      7
100
AcDbVertex
100
AcDb2dVertex
  10
218.987087
  20
132.77821
  30
0.0
   0
SEQEND
   5
1B5
100
AcDbEntity
   8
MAIN
   6
CONTINUOUS
   0
POLYLINE
   5
1B6
100
AcDbEntity
   8
MAIN
   6
CONTINUOUS
  62
      7
100
AcDb2dPolyline
  66
      1
  10
0.0
  20
0.0
  30
0.0
  70
      1
  75
      5
   0
VERTEX
   5
1B7
100
AcDbEntity
   8
MAIN
   6
CONTINUOUS
  62
      7
100
AcDbVertex
100
AcDb2dVertex
  10
218.878837
  20
132.84071
  30
0.0
   0
VERTEX
   5
1B8
100
AcDbEntity
   8
MAIN
   6
CONTINUOUS
  62
      7
100
AcDbVertex
100
AcDb2dVertex
  10
218.987087
  20
132.90321
  30
0.0
   0
VERTEX
   5
1B9
100
AcDbEntity
   8
MAIN
   6
CONTINUOUS
  62
      7
100
AcDbVertex
100
AcDb2dVertex
  10
217.987087
  20
132.84071
  30
0.0
   0
VERTEX
   5
1BA
100
AcDbEntity
   8
MAIN
   6
CONTINUOUS
  62
      7
100
AcDbVertex
100
AcDb2dVertex
  10
218.095337
  20
132.77821
  30
0.0
   0
SEQEND
   5
1BB
100
AcDbEntity
   8
MAIN
   6
CONTINUOUS
   0
POLYLINE
   5
1BC
100
AcDbEntity
   8
MAIN
   6
CONTINUOUS
  62
      7
100
AcDb2dPolyline
  66
      1
  10
0.0
  20
0.0
  30
0.0
  70
      1
  75
      5
   0
VERTEX
   5
1BD
100
AcDbEntity
   8
MAIN
   6
CONTINUOUS
  62
      7
100
AcDbVertex
100
AcDb2dVertex
  10
217.987087
  20
132.84071
  30
0.0
   0
VERTEX
   5
1BE
100
AcDbEntity
   8
MAIN
   6
CONTINUOUS
  62
      7
100
AcDbVertex
100
AcDb2dVertex
  10
218.095337
  20
132.90321
  30
0.0
   0
VERTEX
   5
1BF
100
AcDbEntity
   8
MAIN
   6
CONTINUOUS
  62
      7
100
AcDbVertex
100
AcDb2dVertex
  10
218.878827
  20
132.96571
  30
0.0
   0
VERTEX
   5
1C0
100
AcDbEntity
   8
MAIN
   6
CONTINUOUS
  62
      7
100
AcDbVertex
100
AcDb2dVertex
  10
218.987077
  20
132.90321
  30
0.0
   0
SEQEND
   5
1C1
100
AcDbEntity
   8
MAIN
   6
CONTINUOUS
   0
POLYLINE
   5
1C2
100
AcDbEntity
   8
MAIN
   6
CONTINUOUS
  62
      7
100
AcDb2dPolyline
  66
      1
  10
0.0
  20
0.0
  30
0.0
  70
      1
  75
      5
   0
VERTEX
   5
1C3
100
AcDbEntity
   8
MAIN
   6
CONTINUOUS
  62
      7
100
AcDbVertex
100
AcDb2dVertex
  10
218.878827
  20
132.96571
  30
0.0
   0
VERTEX
   5
1C4
100
AcDbEntity
   8
MAIN
   6
CONTINUOUS
  62
      7
100
AcDbVertex
100
AcDb2dVertex
  10
218.987077
  20
133.02821
  30
0.0
   0
VERTEX
   5
1C5
100
AcDbEntity
   8
MAIN
   6
CONTINUOUS
  62
      7
100
AcDbVertex
100
AcDb2dVertex
  10
217.987077
  20
132.96571
  30
0.0
   0
VERTEX
   5
1C6
100
AcDbEntity
   8
MAIN
   6
CONTINUOUS
  62
      7
100
AcDbVertex
100
AcDb2dVertex
  10
218.095327
  20
132.90321
  30
0.0
   0
SEQEND
   5
1C7
100
AcDbEntity
   8
MAIN
   6
CONTINUOUS
   0
POLYLINE
   5
1C8
100
AcDbEntity
   8
MAIN
   6
CONTINUOUS
  62
      7
100
AcDb2dPolyline
  66
      1
  10
0.0
  20
0.0
  30
0.0
  70
      1
  75
      5
   0
VERTEX
   5
1C9
100
AcDbEntity
   8
MAIN
   6
CONTINUOUS
  62
      7
100
AcDbVertex
100
AcDb2dVertex
  10
217.987077
  20
132.96571
  30
0.0
   0
VERTEX
   5
1CA
100
AcDbEntity
   8
MAIN
   6
CONTINUOUS
  62
      7
100
AcDbVertex
100
AcDb2dVertex
  10
218.095327
  20
133.02821
  30
0.0
   0
VERTEX
   5
1CB
100
AcDbEntity
   8
MAIN
   6
CONTINUOUS
  62
      7
100
AcDbVertex
100
AcDb2dVertex
  10
218.878817
  20
133.09071
  30
0.0
   0
VERTEX
   5
1CC
100
AcDbEntity
   8
MAIN
   6
CONTINUOUS
  62
      7
100
AcDbVertex
100
AcDb2dVertex
  10
218.987067
  20
133.02821
  30
0.0
   0
SEQEND
   5
1CD
100
AcDbEntity
   8
MAIN
   6
CONTINUOUS
   0
POLYLINE
   5
1CE
100
AcDbEntity
   8
MAIN
   6
CONTINUOUS
  62
      7
100
AcDb2dPolyline
  66
      1
  10
0.0
  20
0.0
  30
0.0
  70
      1
  75
      5
   0
VERTEX
   5
1CF
100
AcDbEntity
   8
MAIN
   6
CONTINUOUS
  62
      7
100
AcDbVertex
100
AcDb2dVertex
  10
218.878817
  20
133.09071
  30
0.0
   0
VERTEX
   5
1D0
100
AcDbEntity
   8
MAIN
   6
CONTINUOUS
  62
      7
100
AcDbVertex
100
AcDb2dVertex
  10
218.987067
  20
133.15321
  30
0.0
   0
VERTEX
   5
1D1
100
AcDbEntity
   8
MAIN
   6
CONTINUOUS
  62
      7
100
AcDbVertex
100
AcDb2dVertex
  10
217.987067
  20
133.09071
  30
0.0
   0
VERTEX
   5
1D2
100
AcDbEntity
   8
MAIN
   6
CONTINUOUS
  62
      7
100
AcDbVertex
100
AcDb2dVertex
  10
218.095317
  20
133.02821
  30
0.0
   0
SEQEND
   5
1D3
100
AcDbEntity
   8
MAIN
   6
CONTINUOUS
   0
POLYLINE
   5
1D4
100
AcDbEntity
   8
MAIN
   6
CONTINUOUS
  62
      7
100
AcDb2dPolyline
  66
      1
  10
0.0
  20
0.0
  30
0.0
  70
      1
  75
      5
   0
VERTEX
   5
1D5
100
AcDbEntity
   8
MAIN
   6
CONTINUOUS
  62
      7
100
AcDbVertex
100
AcDb2dVertex
  10
217.987067
  20
133.09071
  30
0.0
   0
VERTEX
   5
1D6
100
AcDbEntity
   8
MAIN
   6
CONTINUOUS
  62
      7
100
AcDbVertex
100
AcDb2dVertex
  10
218.095317
  20
133.15321
  30
0.0
   0
VERTEX
   5
1D7
100
AcDbEntity
   8
MAIN
   6
CONTINUOUS
  62
      7
100
AcDbVertex
100
AcDb2dVertex
  10
218.878807
  20
133.21571
  30
0.0
   0
VERTEX
   5
1D8
100
AcDbEntity
   8
MAIN
   6
CONTINUOUS
  62
      7
100
AcDbVertex
100
AcDb2dVertex
  10
218.987057
  20
133.15321
  30
0.0
   0
SEQEND
   5
1D9
100
AcDbEntity
   8
MAIN
   6
CONTINUOUS
   0
POLYLINE
   5
1DA
100
AcDbEntity
   8
MAIN
   6
CONTINUOUS
  62
      7
100
AcDb2dPolyline
  66
      1
  10
0.0
  20
0.0
  30
0.0
  70
      1
  75
      5
   0
VERTEX
   5
1DB
100
AcDbEntity
   8
MAIN
   6
CONTINUOUS
  62
      7
100
AcDbVertex
100
AcDb2dVertex
  10
218.878807
  20
133.21571
  30
0.0
   0
VERTEX
   5
1DC
100
AcDbEntity
   8
MAIN
   6
CONTINUOUS
  62
      7
100
AcDbVertex
100
AcDb2dVertex
  10
218.987057
  20
133.27821
  30
0.0
   0
VERTEX
   5
1DD
100
AcDbEntity
   8
MAIN
   6
CONTINUOUS
  62
      7
100
AcDbVertex
100
AcDb2dVertex
  10
217.987057
  20
133.21571
  30
0.0
   0
VERTEX
   5
1DE
100
AcDbEntity
   8
MAIN
   6
CONTINUOUS
  62
      7
100
AcDbVertex
100
AcDb2dVertex
  10
218.095307
  20
133.15321
  30
0.0
   0
SEQEND
   5
1DF
100
AcDbEntity
   8
MAIN
   6
CONTINUOUS
   0
POLYLINE
   5
1E0
100
AcDbEntity
   8
MAIN
   6
CONTINUOUS
  62
      7
100
AcDb2dPolyline
  66
      1
  10
0.0
  20
0.0
  30
0.0
  70
      1
  75
      5
   0
VERTEX
   5
1E1
100
AcDbEntity
   8
MAIN
   6
CONTINUOUS
  62
      7
100
AcDbVertex
100
AcDb2dVertex
  10
217.987057
  20
133.21571
  30
0.0
   0
VERTEX
   5
1E2
100
AcDbEntity
   8
MAIN
   6
CONTINUOUS
  62
      7
100
AcDbVertex
100
AcDb2dVertex
  10
218.095307
  20
133.27821
  30
0.0
   0
VERTEX
   5
1E3
100
AcDbEntity
   8
MAIN
   6
CONTINUOUS
  62
      7
100
AcDbVertex
100
AcDb2dVertex
  10
218.878797
  20
133.34071
  30
0.0
   0
VERTEX
   5
1E4
100
AcDbEntity
   8
MAIN
   6
CONTINUOUS
  62
      7
100
AcDbVertex
100
AcDb2dVertex
  10
218.987047
  20
133.27821
  30
0.0
   0
SEQEND
   5
1E5
100
AcDbEntity
   8
MAIN
   6
CONTINUOUS
   0
POLYLINE
   5
1E6
100
AcDbEntity
   8
MAIN
   6
CONTINUOUS
  62
      7
100
AcDb2dPolyline
  66
      1
  10
0.0
  20
0.0
  30
0.0
  70
      1
  75
      5
   0
VERTEX
   5
1E7
100
AcDbEntity
   8
MAIN
   6
CONTINUOUS
  62
      7
100
AcDbVertex
100
AcDb2dVertex
  10
218.878797
  20
133.34071
  30
0.0
   0
VERTEX
   5
1E8
100
AcDbEntity
   8
MAIN
   6
CONTINUOUS
  62
      7
100
AcDbVertex
100
AcDb2dVertex
  10
218.987047
  20
133.40321
  30
0.0
   0
VERTEX
   5
1E9
100
AcDbEntity
   8
MAIN
   6
CONTINUOUS
  62
      7
100
AcDbVertex
100
AcDb2dVertex
  10
217.987047
  20
133.34071
  30
0.0
   0
VERTEX
   5
1EA
100
AcDbEntity
   8
MAIN
   6
CONTINUOUS
  62
      7
100
AcDbVertex
100
AcDb2dVertex
  10
218.095297
  20
133.27821
  30
0.0
   0
SEQEND
   5
1EB
100
AcDbEntity
   8
MAIN
   6
CONTINUOUS
   0
POLYLINE
   5
1EC
100
AcDbEntity
   8
MAIN
   6
CONTINUOUS
  62
      7
100
AcDb2dPolyline
  66
      1
  10
0.0
  20
0.0
  30
0.0
  70
      1
  75
      5
   0
VERTEX
   5
1ED
100
AcDbEntity
   8
MAIN
   6
CONTINUOUS
  62
      7
100
AcDbVertex
100
AcDb2dVertex
  10
217.987047
  20
133.34071
  30
0.0
   0
VERTEX
   5
1EE
100
AcDbEntity
   8
MAIN
   6
CONTINUOUS
  62
      7
100
AcDbVertex
100
AcDb2dVertex
  10
218.095297
  20
133.40321
  30
0.0
   0
VERTEX
   5
1EF
100
AcDbEntity
   8
MAIN
   6
CONTINUOUS
  62
      7
100
AcDbVertex
100
AcDb2dVertex
  10
218.878787
  20
133.46571
  30
0.0
   0
VERTEX
   5
1F0
100
AcDbEntity
   8
MAIN
   6
CONTINUOUS
  62
      7
100
AcDbVertex
100
AcDb2dVertex
  10
218.987037
  20
133.40321
  30
0.0
   0
SEQEND
   5
1F1
100
AcDbEntity
   8
MAIN
   6
CONTINUOUS
   0
POLYLINE
   5
1F2
100
AcDbEntity
   8
MAIN
   6
CONTINUOUS
  62
      7
100
AcDb2dPolyline
  66
      1
  10
0.0
  20
0.0
  30
0.0
  70
      1
  75
      5
   0
VERTEX
   5
1F3
100
AcDbEntity
   8
MAIN
   6
CONTINUOUS
  62
      7
100
AcDbVertex
100
AcDb2dVertex
  10
218.878787
  20
133.46571
  30
0.0
   0
VERTEX
   5
1F4
100
AcDbEntity
   8
MAIN
   6
CONTINUOUS
  62
      7
100
AcDbVertex
100
AcDb2dVertex
  10
218.987037
  20
133.52821
  30
0.0
   0
VERTEX
   5
1F5
100
AcDbEntity
   8
MAIN
   6
CONTINUOUS
  62
      7
100
AcDbVertex
100
AcDb2dVertex
  10
217.987037
  20
133.46571
  30
0.0
   0
VERTEX
   5
1F6
100
AcDbEntity
   8
MAIN
   6
CONTINUOUS
  62
      7
100
AcDbVertex
100
AcDb2dVertex
  10
218.095287
  20
133.40321
  30
0.0
   0
SEQEND
   5
1F7
100
AcDbEntity
   8
MAIN
   6
CONTINUOUS
   0
POLYLINE
   5
1F8
100
AcDbEntity
   8
MAIN
   6
CONTINUOUS
  62
      7
100
AcDb2dPolyline
  66
      1
  10
0.0
  20
0.0
  30
0.0
  70
      1
  75
      5
   0
VERTEX
   5
1F9
100
AcDbEntity
   8
MAIN
   6
CONTINUOUS
  62
      7
100
AcDbVertex
100
AcDb2dVertex
  10
217.987037
  20
133.46571
  30
0.0
   0
VERTEX
   5
1FA
100
AcDbEntity
   8
MAIN
   6
CONTINUOUS
  62
      7
100
AcDbVertex
100
AcDb2dVertex
  10
218.095287
  20
133.52821
  30
0.0
   0
VERTEX
   5
1FB
100
AcDbEntity
   8
MAIN
   6
CONTINUOUS
  62
      7
100
AcDbVertex
100
AcDb2dVertex
  10
218.878777
  20
133.59071
  30
0.0
   0
VERTEX
   5
1FC
100
AcDbEntity
   8
MAIN
   6
CONTINUOUS
  62
      7
100
AcDbVertex
100
AcDb2dVertex
  10
218.987027
  20
133.52821
  30
0.0
   0
SEQEND
   5
1FD
100
AcDbEntity
   8
MAIN
   6
CONTINUOUS
   0
POLYLINE
   5
1FE
100
AcDbEntity
   8
MAIN
   6
CONTINUOUS
  62
      7
100
AcDb2dPolyline
  66
      1
  10
0.0
  20
0.0
  30
0.0
  70
      1
  75
      5
   0
VERTEX
   5
1FF
100
AcDbEntity
   8
MAIN
   6
CONTINUOUS
  62
      7
100
AcDbVertex
100
AcDb2dVertex
  10
218.878777
  20
133.59071
  30
0.0
   0
VERTEX
   5
200
100
AcDbEntity
   8
MAIN
   6
CONTINUOUS
  62
      7
100
AcDbVertex
100
AcDb2dVertex
  10
218.987027
  20
133.65321
  30
0.0
   0
VERTEX
   5
201
100
AcDbEntity
   8
MAIN
   6
CONTINUOUS
  62
      7
100
AcDbVertex
100
AcDb2dVertex
  10
217.987027
  20
133.59071
  30
0.0
   0
VERTEX
   5
202
100
AcDbEntity
   8
MAIN
   6
CONTINUOUS
  62
      7
100
AcDbVertex
100
AcDb2dVertex
  10
218.095277
  20
133.52821
  30
0.0
   0
SEQEND
   5
203
100
AcDbEntity
   8
MAIN
   6
CONTINUOUS
   0
POLYLINE
   5
204
100
AcDbEntity
   8
MAIN
   6
CONTINUOUS
  62
      7
100
AcDb2dPolyline
  66
      1
  10
0.0
  20
0.0
  30
0.0
  70
      1
  75
      5
   0
VERTEX
   5
205
100
AcDbEntity
   8
MAIN
   6
CONTINUOUS
  62
      7
100
AcDbVertex
100
AcDb2dVertex
  10
217.987027
  20
133.59071
  30
0.0
   0
VERTEX
   5
206
100
AcDbEntity
   8
MAIN
   6
CONTINUOUS
  62
      7
100
AcDbVertex
100
AcDb2dVertex
  10
218.095277
  20
133.65321
  30
0.0
   0
VERTEX
   5
207
100
AcDbEntity
   8
MAIN
   6
CONTINUOUS
  62
      7
100
AcDbVertex
100
AcDb2dVertex
  10
218.878767
  20
133.71571
  30
0.0
   0
VERTEX
   5
208
100
AcDbEntity
   8
MAIN
   6
CONTINUOUS
  62
      7
100
AcDbVertex
100
AcDb2dVertex
  10
218.987017
  20
133.65321
  30
0.0
   0
SEQEND
   5
209
100
AcDbEntity
   8
MAIN
   6
CONTINUOUS
   0
POLYLINE
   5
20A
100
AcDbEntity
   8
MAIN
   6
CONTINUOUS
  62
      7
100
AcDb2dPolyline
  66
      1
  10
0.0
  20
0.0
  30
0.0
  70
      1
  75
      5
   0
VERTEX
   5
20B
100
AcDbEntity
   8
MAIN
   6
CONTINUOUS
  62
      7
100
AcDbVertex
100
AcDb2dVertex
  10
218.878767
  20
133.71571
  30
0.0
   0
VERTEX
   5
20C
100
AcDbEntity
   8
MAIN
   6
CONTINUOUS
  62
      7
100
AcDbVertex
100
AcDb2dVertex
  10
218.987017
  20
133.77821
  30
0.0
   0
VERTEX
   5
20D
100
AcDbEntity
   8
MAIN
   6
CONTINUOUS
  62
      7
100
AcDbVertex
100
AcDb2dVertex
  10
217.987017
  20
133.71571
  30
0.0
   0
VERTEX
   5
20E
100
AcDbEntity
   8
MAIN
   6
CONTINUOUS
  62
      7
100
AcDbVertex
100
AcDb2dVertex
  10
218.095267
  20
133.65321
  30
0.0
   0
SEQEND
   5
20F
100
AcDbEntity
   8
MAIN
   6
CONTINUOUS
   0
POLYLINE
   5
210
100
AcDbEntity
   8
MAIN
   6
CONTINUOUS
  62
      7
100
AcDb2dPolyline
  66
      1
  10
0.0
  20
0.0
  30
0.0
  70
      1
  75
      5
   0
VERTEX
   5
211
100
AcDbEntity
   8
MAIN
   6
CONTINUOUS
  62
      7
100
AcDbVertex
100
AcDb2dVertex
  10
217.987017
  20
133.71571
  30
0.0
   0
VERTEX
   5
212
100
AcDbEntity
   8
MAIN
   6
CONTINUOUS
  62
      7
100
AcDbVertex
100
AcDb2dVertex
  10
218.095267
  20
133.77821
  30
0.0
   0
VERTEX
   5
213
100
AcDbEntity
   8
MAIN
   6
CONTINUOUS
  62
      7
100
AcDbVertex
100
AcDb2dVertex
  10
218.878757
  20
133.84071
  30
0.0
   0
VERTEX
   5
214
100
AcDbEntity
   8
MAIN
   6
CONTINUOUS
  62
      7
100
AcDbVertex
100
AcDb2dVertex
  10
218.987007
  20
133.77821
  30
0.0
   0
SEQEND
   5
215
100
AcDbEntity
   8
MAIN
   6
CONTINUOUS
   0
POLYLINE
   5
216
100
AcDbEntity
   8
MAIN
   6
CONTINUOUS
  62
      7
100
AcDb2dPolyline
  66
      1
  10
0.0
  20
0.0
  30
0.0
  70
      1
  75
      5
   0
VERTEX
   5
217
100
AcDbEntity
   8
MAIN
   6
CONTINUOUS
  62
      7
100
AcDbVertex
100
AcDb2dVertex
  10
218.878757
  20
133.84071
  30
0.0
   0
VERTEX
   5
218
100
AcDbEntity
   8
MAIN
   6
CONTINUOUS
  62
      7
100
AcDbVertex
100
AcDb2dVertex
  10
218.987007
  20
133.90321
  30
0.0
   0
VERTEX
   5
219
100
AcDbEntity
   8
MAIN
   6
CONTINUOUS
  62
      7
100
AcDbVertex
100
AcDb2dVertex
  10
217.987007
  20
133.84071
  30
0.0
   0
VERTEX
   5
21A
100
AcDbEntity
   8
MAIN
   6
CONTINUOUS
  62
      7
100
AcDbVertex
100
AcDb2dVertex
  10
218.095257
  20
133.77821
  30
0.0
   0
SEQEND
   5
21B
100
AcDbEntity
   8
MAIN
   6
CONTINUOUS
   0
POLYLINE
   5
21C
100
AcDbEntity
   8
MAIN
   6
CONTINUOUS
  62
      7
100
AcDb2dPolyline
  66
      1
  10
0.0
  20
0.0
  30
0.0
  70
      1
  75
      5
   0
VERTEX
   5
21D
100
AcDbEntity
   8
MAIN
   6
CONTINUOUS
  62
      7
100
AcDbVertex
100
AcDb2dVertex
  10
217.987007
  20
133.84071
  30
0.0
   0
VERTEX
   5
21E
100
AcDbEntity
   8
MAIN
   6
CONTINUOUS
  62
      7
100
AcDbVertex
100
AcDb2dVertex
  10
218.095257
  20
133.90321
  30
0.0
   0
VERTEX
   5
21F
100
AcDbEntity
   8
MAIN
   6
CONTINUOUS
  62
      7
100
AcDbVertex
100
AcDb2dVertex
  10
218.878747
  20
133.96571
  30
0.0
   0
VERTEX
   5
220
100
AcDbEntity
   8
MAIN
   6
CONTINUOUS
  62
      7
100
AcDbVertex
100
AcDb2dVertex
  10
218.986997
  20
133.90321
  30
0.0
   0
SEQEND
   5
221
100
AcDbEntity
   8
MAIN
   6
CONTINUOUS
   0
POLYLINE
   5
222
100
AcDbEntity
   8
MAIN
   6
CONTINUOUS
  62
      7
100
AcDb2dPolyline
  66
      1
  10
0.0
  20
0.0
  30
0.0
  70
      1
  75
      5
   0
VERTEX
   5
223
100
AcDbEntity
   8
MAIN
   6
CONTINUOUS
  62
      7
100
AcDbVertex
100
AcDb2dVertex
  10
218.878747
  20
133.96571
  30
0.0
   0
VERTEX
   5
224
100
AcDbEntity
   8
MAIN
   6
CONTINUOUS
  62
      7
100
AcDbVertex
100
AcDb2dVertex
  10
218.986997
  20
134.02821
  30
0.0
   0
VERTEX
   5
225
100
AcDbEntity
   8
MAIN
   6
CONTINUOUS
  62
      7
100
AcDbVertex
100
AcDb2dVertex
  10
217.986997
  20
133.96571
  30
0.0
   0
VERTEX
   5
226
100
AcDbEntity
   8
MAIN
   6
CONTINUOUS
  62
      7
100
AcDbVertex
100
AcDb2dVertex
  10
218.095247
  20
133.90321
  30
0.0
   0
SEQEND
   5
227
100
AcDbEntity
   8
MAIN
   6
CONTINUOUS
   0
POLYLINE
   5
228
100
AcDbEntity
   8
MAIN
   6
CONTINUOUS
  62
      7
100
AcDb2dPolyline
  66
      1
  10
0.0
  20
0.0
  30
0.0
  70
      1
  75
      5
   0
VERTEX
   5
229
100
AcDbEntity
   8
MAIN
   6
CONTINUOUS
  62
      7
100
AcDbVertex
100
AcDb2dVertex
  10
217.986997
  20
133.96571
  30
0.0
   0
VERTEX
   5
22A
100
AcDbEntity
   8
MAIN
   6
CONTINUOUS
  62
      7
100
AcDbVertex
100
AcDb2dVertex
  10
218.095247
  20
134.02821
  30
0.0
   0
VERTEX
   5
22B
100
AcDbEntity
   8
MAIN
   6
CONTINUOUS
  62
      7
100
AcDbVertex
100
AcDb2dVertex
  10
218.878737
  20
134.09071
  30
0.0
   0
VERTEX
   5
22C
100
AcDbEntity
   8
MAIN
   6
CONTINUOUS
  62
      7
100
AcDbVertex
100
AcDb2dVertex
  10
218.986987
  20
134.02821
  30
0.0
   0
SEQEND
   5
22D
100
AcDbEntity
   8
MAIN
   6
CONTINUOUS
   0
POLYLINE
   5
22E
100
AcDbEntity
   8
MAIN
   6
CONTINUOUS
  62
      7
100
AcDb2dPolyline
  66
      1
  10
0.0
  20
0.0
  30
0.0
  70
      1
  75
      5
   0
VERTEX
   5
22F
100
AcDbEntity
   8
MAIN
   6
CONTINUOUS
  62
      7
100
AcDbVertex
100
AcDb2dVertex
  10
218.878737
  20
134.09071
  30
0.0
   0
VERTEX
   5
230
100
AcDbEntity
   8
MAIN
   6
CONTINUOUS
  62
      7
100
AcDbVertex
100
AcDb2dVertex
  10
218.986987
  20
134.15321
  30
0.0
   0
VERTEX
   5
231
100
AcDbEntity
   8
MAIN
   6
CONTINUOUS
  62
      7
100
AcDbVertex
100
AcDb2dVertex
  10
217.986987
  20
134.09071
  30
0.0
   0
VERTEX
   5
232
100
AcDbEntity
   8
MAIN
   6
CONTINUOUS
  62
      7
100
AcDbVertex
100
AcDb2dVertex
  10
218.095237
  20
134.02821
  30
0.0
   0
SEQEND
   5
233
100
AcDbEntity
   8
MAIN
   6
CONTINUOUS
   0
POLYLINE
   5
234
100
AcDbEntity
   8
MAIN
   6
CONTINUOUS
  62
      7
100
AcDb2dPolyline
  66
      1
  10
0.0
  20
0.0
  30
0.0
  70
      1
  75
      5
   0
VERTEX
   5
235
100
AcDbEntity
   8
MAIN
   6
CONTINUOUS
  62
      7
100
AcDbVertex
100
AcDb2dVertex
  10
217.986987
  20
134.09071
  30
0.0
   0
VERTEX
   5
236
100
AcDbEntity
   8
MAIN
   6
CONTINUOUS
  62
      7
100
AcDbVertex
100
AcDb2dVertex
  10
218.095237
  20
134.15321
  30
0.0
   0
VERTEX
   5
237
100
AcDbEntity
   8
MAIN
   6
CONTINUOUS
  62
      7
100
AcDbVertex
100
AcDb2dVertex
  10
218.878727
  20
134.21571
  30
0.0
   0
VERTEX
   5
238
100
AcDbEntity
   8
MAIN
   6
CONTINUOUS
  62
      7
100
AcDbVertex
100
AcDb2dVertex
  10
218.986977
  20
134.15321
  30
0.0
   0
SEQEND
   5
239
100
AcDbEntity
   8
MAIN
   6
CONTINUOUS
   0
POLYLINE
   5
23A
100
AcDbEntity
   8
MAIN
   6
CONTINUOUS
  62
      7
100
AcDb2dPolyline
  66
      1
  10
0.0
  20
0.0
  30
0.0
  70
      1
  75
      5
   0
VERTEX
   5
23B
100
AcDbEntity
   8
MAIN
   6
CONTINUOUS
  62
      7
100
AcDbVertex
100
AcDb2dVertex
  10
218.878727
  20
134.21571
  30
0.0
   0
VERTEX
   5
23C
100
AcDbEntity
   8
MAIN
   6
CONTINUOUS
  62
      7
100
AcDbVertex
100
AcDb2dVertex
  10
218.986977
  20
134.27821
  30
0.0
   0
VERTEX
   5
23D
100
AcDbEntity
   8
MAIN
   6
CONTINUOUS
  62
      7
100
AcDbVertex
100
AcDb2dVertex
  10
217.986977
  20
134.21571
  30
0.0
   0
VERTEX
   5
23E
100
AcDbEntity
   8
MAIN
   6
CONTINUOUS
  62
      7
100
AcDbVertex
100
AcDb2dVertex
  10
218.095227
  20
134.15321
  30
0.0
   0
SEQEND
   5
23F
100
AcDbEntity
   8
MAIN
   6
CONTINUOUS
   0
POLYLINE
   5
240
100
AcDbEntity
   8
MAIN
   6
CONTINUOUS
  62
      7
100
AcDb2dPolyline
  66
      1
  10
0.0
  20
0.0
  30
0.0
  70
      1
  75
      5
   0
VERTEX
   5
241
100
AcDbEntity
   8
MAIN
   6
CONTINUOUS
  62
      7
100
AcDbVertex
100
AcDb2dVertex
  10
217.986977
  20
134.21571
  30
0.0
   0
VERTEX
   5
242
100
AcDbEntity
   8
MAIN
   6
CONTINUOUS
  62
      7
100
AcDbVertex
100
AcDb2dVertex
  10
218.095227
  20
134.27821
  30
0.0
   0
VERTEX
   5
243
100
AcDbEntity
   8
MAIN
   6
CONTINUOUS
  62
      7
100
AcDbVertex
100
AcDb2dVertex
  10
218.878717
  20
134.34071
  30
0.0
   0
VERTEX
   5
244
100
AcDbEntity
   8
MAIN
   6
CONTINUOUS
  62
      7
100
AcDbVertex
100
AcDb2dVertex
  10
218.986967
  20
134.27821
  30
0.0
   0
SEQEND
   5
245
100
AcDbEntity
   8
MAIN
   6
CONTINUOUS
   0
POLYLINE
   5
246
100
AcDbEntity
   8
MAIN
   6
CONTINUOUS
  62
      7
100
AcDb2dPolyline
  66
      1
  10
0.0
  20
0.0
  30
0.0
  70
      1
  75
      5
   0
VERTEX
   5
247
100
AcDbEntity
   8
MAIN
   6
CONTINUOUS
  62
      7
100
AcDbVertex
100
AcDb2dVertex
  10
218.878717
  20
134.34071
  30
0.0
   0
VERTEX
   5
248
100
AcDbEntity
   8
MAIN
   6
CONTINUOUS
  62
      7
100
AcDbVertex
100
AcDb2dVertex
  10
218.986967
  20
134.40321
  30
0.0
   0
VERTEX
   5
249
100
AcDbEntity
   8
MAIN
   6
CONTINUOUS
  62
      7
100
AcDbVertex
100
AcDb2dVertex
  10
217.986967
  20
134.34071
  30
0.0
   0
VERTEX
   5
24A
100
AcDbEntity
   8
MAIN
   6
CONTINUOUS
  62
      7
100
AcDbVertex
100
AcDb2dVertex
  10
218.095217
  20
134.27821
  30
0.0
   0
SEQEND
   5
24B
100
AcDbEntity
   8
MAIN
   6
CONTINUOUS
   0
POLYLINE
   5
24C
100
AcDbEntity
   8
MAIN
   6
CONTINUOUS
  62
      7
100
AcDb2dPolyline
  66
      1
  10
0.0
  20
0.0
  30
0.0
  70
      1
  75
      5
   0
VERTEX
   5
24D
100
AcDbEntity
   8
MAIN
   6
CONTINUOUS
  62
      7
100
AcDbVertex
100
AcDb2dVertex
  10
217.986967
  20
134.34071
  30
0.0
   0
VERTEX
   5
24E
100
AcDbEntity
   8
MAIN
   6
CONTINUOUS
  62
      7
100
AcDbVertex
100
AcDb2dVertex
  10
218.095217
  20
134.40321
  30
0.0
   0
VERTEX
   5
24F
100
AcDbEntity
   8
MAIN
   6
CONTINUOUS
  62
      7
100
AcDbVertex
100
AcDb2dVertex
  10
218.878707
  20
134.46571
  30
0.0
   0
VERTEX
   5
250
100
AcDbEntity
   8
MAIN
   6
CONTINUOUS
  62
      7
100
AcDbVertex
100
AcDb2dVertex
  10
218.986957
  20
134.40321
  30
0.0
   0
SEQEND
   5
251
100
AcDbEntity
   8
MAIN
   6
CONTINUOUS
   0
POLYLINE
   5
252
100
AcDbEntity
   8
MAIN
   6
CONTINUOUS
  62
      7
100
AcDb2dPolyline
  66
      1
  10
0.0
  20
0.0
  30
0.0
  70
      1
  75
      5
   0
VERTEX
   5
253
100
AcDbEntity
   8
MAIN
   6
CONTINUOUS
  62
      7
100
AcDbVertex
100
AcDb2dVertex
  10
218.878707
  20
134.46571
  30
0.0
   0
VERTEX
   5
254
100
AcDbEntity
   8
MAIN
   6
CONTINUOUS
  62
      7
100
AcDbVertex
100
AcDb2dVertex
  10
218.986957
  20
134.52821
  30
0.0
   0
VERTEX
   5
255
100
AcDbEntity
   8
MAIN
   6
CONTINUOUS
  62
      7
100
AcDbVertex
100
AcDb2dVertex
  10
217.986957
  20
134.46571
  30
0.0
   0
VERTEX
   5
256
100
AcDbEntity
   8
MAIN
   6
CONTINUOUS
  62
      7
100
AcDbVertex
100
AcDb2dVertex
  10
218.095207
  20
134.40321
  30
0.0
   0
SEQEND
   5
257
100
AcDbEntity
   8
MAIN
   6
CONTINUOUS
   0
POLYLINE
   5
258
100
AcDbEntity
   8
MAIN
   6
CONTINUOUS
  62
      7
100
AcDb2dPolyline
  66
      1
  10
0.0
  20
0.0
  30
0.0
  70
      1
  75
      5
   0
VERTEX
   5
259
100
AcDbEntity
   8
MAIN
   6
CONTINUOUS
  62
      7
100
AcDbVertex
100
AcDb2dVertex
  10
217.986957
  20
134.46571
  30
0.0
   0
VERTEX
   5
25A
100
AcDbEntity
   8
MAIN
   6
CONTINUOUS
  62
      7
100
AcDbVertex
100
AcDb2dVertex
  10
218.095207
  20
134.52821
  30
0.0
   0
VERTEX
   5
25B
100
AcDbEntity
   8
MAIN
   6
CONTINUOUS
  62
      7
100
AcDbVertex
100
AcDb2dVertex
  10
218.878697
  20
134.59071
  30
0.0
   0
VERTEX
   5
25C
100
AcDbEntity
   8
MAIN
   6
CONTINUOUS
  62
      7
100
AcDbVertex
100
AcDb2dVertex
  10
218.986947
  20
134.52821
  30
0.0
   0
SEQEND
   5
25D
100
AcDbEntity
   8
MAIN
   6
CONTINUOUS
   0
POLYLINE
   5
25E
100
AcDbEntity
   8
MAIN
   6
CONTINUOUS
  62
      7
100
AcDb2dPolyline
  66
      1
  10
0.0
  20
0.0
  30
0.0
  70
      1
  75
      5
   0
VERTEX
   5
25F
100
AcDbEntity
   8
MAIN
   6
CONTINUOUS
  62
      7
100
AcDbVertex
100
AcDb2dVertex
  10
218.878697
  20
134.59071
  30
0.0
   0
VERTEX
   5
260
100
AcDbEntity
   8
MAIN
   6
CONTINUOUS
  62
      7
100
AcDbVertex
100
AcDb2dVertex
  10
218.986947
  20
134.65321
  30
0.0
   0
VERTEX
   5
261
100
AcDbEntity
   8
MAIN
   6
CONTINUOUS
  62
      7
100
AcDbVertex
100
AcDb2dVertex
  10
217.986947
  20
134.59071
  30
0.0
   0
VERTEX
   5
262
100
AcDbEntity
   8
MAIN
   6
CONTINUOUS
  62
      7
100
AcDbVertex
100
AcDb2dVertex
  10
218.095197
  20
134.52821
  30
0.0
   0
SEQEND
   5
263
100
AcDbEntity
   8
MAIN
   6
CONTINUOUS
   0
POLYLINE
   5
264
100
AcDbEntity
   8
MAIN
   6
CONTINUOUS
  62
      7
100
AcDb2dPolyline
  66
      1
  10
0.0
  20
0.0
  30
0.0
  70
      1
  75
      5
   0
VERTEX
   5
265
100
AcDbEntity
   8
MAIN
   6
CONTINUOUS
  62
      7
100
AcDbVertex
100
AcDb2dVertex
  10
217.986947
  20
134.59071
  30
0.0
   0
VERTEX
   5
266
100
AcDbEntity
   8
MAIN
   6
CONTINUOUS
  62
      7
100
AcDbVertex
100
AcDb2dVertex
  10
218.095197
  20
134.65321
  30
0.0
   0
VERTEX
   5
267
100
AcDbEntity
   8
MAIN
   6
CONTINUOUS
  62
      7
100
AcDbVertex
100
AcDb2dVertex
  10
218.878687
  20
134.71571
  30
0.0
   0
VERTEX
   5
268
100
AcDbEntity
   8
MAIN
   6
CONTINUOUS
  62
      7
100
AcDbVertex
100
AcDb2dVertex
  10
218.986937
  20
134.65321
  30
0.0
   0
SEQEND
   5
269
100
AcDbEntity
   8
MAIN
   6
CONTINUOUS
   0
POLYLINE
   5
26A
100
AcDbEntity
   8
MAIN
   6
CONTINUOUS
  62
      7
100
AcDb2dPolyline
  66
      1
  10
0.0
  20
0.0
  30
0.0
  70
      1
  75
      5
   0
VERTEX
   5
26B
100
AcDbEntity
   8
MAIN
   6
CONTINUOUS
  62
      7
100
AcDbVertex
100
AcDb2dVertex
  10
218.878687
  20
134.71571
  30
0.0
   0
VERTEX
   5
26C
100
AcDbEntity
   8
MAIN
   6
CONTINUOUS
  62
      7
100
AcDbVertex
100
AcDb2dVertex
  10
218.986937
  20
134.77821
  30
0.0
   0
VERTEX
   5
26D
100
AcDbEntity
   8
MAIN
   6
CONTINUOUS
  62
      7
100
AcDbVertex
100
AcDb2dVertex
  10
217.986937
  20
134.71571
  30
0.0
   0
VERTEX
   5
26E
100
AcDbEntity
   8
MAIN
   6
CONTINUOUS
  62
      7
100
AcDbVertex
100
AcDb2dVertex
  10
218.095187
  20
134.65321
  30
0.0
   0
SEQEND
   5
26F
100
AcDbEntity
   8
MAIN
   6
CONTINUOUS
   0
POLYLINE
   5
270
100
AcDbEntity
   8
MAIN
   6
CONTINUOUS
  62
      7
100
AcDb2dPolyline
  66
      1
  10
0.0
  20
0.0
  30
0.0
  70
      1
  75
      5
   0
VERTEX
   5
271
100
AcDbEntity
   8
MAIN
   6
CONTINUOUS
  62
      7
100
AcDbVertex
100
AcDb2dVertex
  10
217.986937
  20
134.71571
  30
0.0
   0
VERTEX
   5
272
100
AcDbEntity
   8
MAIN
   6
CONTINUOUS
  62
      7
100
AcDbVertex
100
AcDb2dVertex
  10
218.095187
  20
134.77821
  30
0.0
   0
VERTEX
   5
273
100
AcDbEntity
   8
MAIN
   6
CONTINUOUS
  62
      7
100
AcDbVertex
100
AcDb2dVertex
  10
218.878677
  20
134.84071
  30
0.0
   0
VERTEX
   5
274
100
AcDbEntity
   8
MAIN
   6
CONTINUOUS
  62
      7
100
AcDbVertex
100
AcDb2dVertex
  10
218.986927
  20
134.77821
  30
0.0
   0
SEQEND
   5
275
100
AcDbEntity
   8
MAIN
   6
CONTINUOUS
   0
POLYLINE
   5
276
100
AcDbEntity
   8
MAIN
   6
CONTINUOUS
  62
      7
100
AcDb2dPolyline
  66
      1
  10
0.0
  20
0.0
  30
0.0
  70
      1
  75
      5
   0
VERTEX
   5
277
100
AcDbEntity
   8
MAIN
   6
CONTINUOUS
  62
      7
100
AcDbVertex
100
AcDb2dVertex
  10
218.878677
  20
134.84071
  30
0.0
   0
VERTEX
   5
278
100
AcDbEntity
   8
MAIN
   6
CONTINUOUS
  62
      7
100
AcDbVertex
100
AcDb2dVertex
  10
218.986927
  20
134.90321
  30
0.0
   0
VERTEX
   5
279
100
AcDbEntity
   8
MAIN
   6
CONTINUOUS
  62
      7
100
AcDbVertex
100
AcDb2dVertex
  10
217.986927
  20
134.84071
  30
0.0
   0
VERTEX
   5
27A
100
AcDbEntity
   8
MAIN
   6
CONTINUOUS
  62
      7
100
AcDbVertex
100
AcDb2dVertex
  10
218.095177
  20
134.77821
  30
0.0
   0
SEQEND
   5
27B
100
AcDbEntity
   8
MAIN
   6
CONTINUOUS
   0
POLYLINE
   5
27C
100
AcDbEntity
   8
MAIN
   6
CONTINUOUS
  62
      7
100
AcDb2dPolyline
  66
      1
  10
0.0
  20
0.0
  30
0.0
  70
      1
  75
      5
   0
VERTEX
   5
27D
100
AcDbEntity
   8
MAIN
   6
CONTINUOUS
  62
      7
100
AcDbVertex
100
AcDb2dVertex
  10
217.986927
  20
134.84071
  30
0.0
   0
VERTEX
   5
27E
100
AcDbEntity
   8
MAIN
   6
CONTINUOUS
  62
      7
100
AcDbVertex
100
AcDb2dVertex
  10
218.095177
  20
134.90321
  30
0.0
   0
VERTEX
   5
27F
100
AcDbEntity
   8
MAIN
   6
CONTINUOUS
  62
      7
100
AcDbVertex
100
AcDb2dVertex
  10
218.878667
  20
134.96571
  30
0.0
   0
VERTEX
   5
280
100
AcDbEntity
   8
MAIN
   6
CONTINUOUS
  62
      7
100
AcDbVertex
100
AcDb2dVertex
  10
218.986917
  20
134.90321
  30
0.0
   0
SEQEND
   5
281
100
AcDbEntity
   8
MAIN
   6
CONTINUOUS
   0
POLYLINE
   5
282
100
AcDbEntity
   8
MAIN
   6
CONTINUOUS
  62
      7
100
AcDb2dPolyline
  66
      1
  10
0.0
  20
0.0
  30
0.0
  70
      1
  75
      5
   0
VERTEX
   5
283
100
AcDbEntity
   8
MAIN
   6
CONTINUOUS
  62
      7
100
AcDbVertex
100
AcDb2dVertex
  10
218.878667
  20
134.96571
  30
0.0
   0
VERTEX
   5
284
100
AcDbEntity
   8
MAIN
   6
CONTINUOUS
  62
      7
100
AcDbVertex
100
AcDb2dVertex
  10
218.986917
  20
135.02821
  30
0.0
   0
VERTEX
   5
285
100
AcDbEntity
   8
MAIN
   6
CONTINUOUS
  62
      7
100
AcDbVertex
100
AcDb2dVertex
  10
217.986917
  20
134.96571
  30
0.0
   0
VERTEX
   5
286
100
AcDbEntity
   8
MAIN
   6
CONTINUOUS
  62
      7
100
AcDbVertex
100
AcDb2dVertex
  10
218.095167
  20
134.90321
  30
0.0
   0
SEQEND
   5
287
100
AcDbEntity
   8
MAIN
   6
CONTINUOUS
   0
POLYLINE
   5
288
100
AcDbEntity
   8
MAIN
   6
CONTINUOUS
  62
      7
100
AcDb2dPolyline
  66
      1
  10
0.0
  20
0.0
  30
0.0
  70
      1
  75
      5
   0
VERTEX
   5
289
100
AcDbEntity
   8
MAIN
   6
CONTINUOUS
  62
      7
100
AcDbVertex
100
AcDb2dVertex
  10
217.986917
  20
134.96571
  30
0.0
   0
VERTEX
   5
28A
100
AcDbEntity
   8
MAIN
   6
CONTINUOUS
  62
      7
100
AcDbVertex
100
AcDb2dVertex
  10
218.095167
  20
135.02821
  30
0.0
   0
VERTEX
   5
28B
100
AcDbEntity
   8
MAIN
   6
CONTINUOUS
  62
      7
100
AcDbVertex
100
AcDb2dVertex
  10
218.878657
  20
135.09071
  30
0.0
   0
VERTEX
   5
28C
100
AcDbEntity
   8
MAIN
   6
CONTINUOUS
  62
      7
100
AcDbVertex
100
AcDb2dVertex
  10
218.986907
  20
135.02821
  30
0.0
   0
SEQEND
   5
28D
100
AcDbEntity
   8
MAIN
   6
CONTINUOUS
   0
POLYLINE
   5
28E
100
AcDbEntity
   8
MAIN
   6
CONTINUOUS
  62
      7
100
AcDb2dPolyline
  66
      1
  10
0.0
  20
0.0
  30
0.0
  70
      1
  75
      5
   0
VERTEX
   5
28F
100
AcDbEntity
   8
MAIN
   6
CONTINUOUS
  62
      7
100
AcDbVertex
100
AcDb2dVertex
  10
218.878657
  20
135.09071
  30
0.0
   0
VERTEX
   5
290
100
AcDbEntity
   8
MAIN
   6
CONTINUOUS
  62
      7
100
AcDbVertex
100
AcDb2dVertex
  10
218.986907
  20
135.15321
  30
0.0
   0
VERTEX
   5
291
100
AcDbEntity
   8
MAIN
   6
CONTINUOUS
  62
      7
100
AcDbVertex
100
AcDb2dVertex
  10
217.986907
  20
135.09071
  30
0.0
   0
VERTEX
   5
292
100
AcDbEntity
   8
MAIN
   6
CONTINUOUS
  62
      7
100
AcDbVertex
100
AcDb2dVertex
  10
218.095157
  20
135.02821
  30
0.0
   0
SEQEND
   5
293
100
AcDbEntity
   8
MAIN
   6
CONTINUOUS
   0
POLYLINE
   5
294
100
AcDbEntity
   8
MAIN
   6
CONTINUOUS
  62
      7
100
AcDb2dPolyline
  66
      1
  10
0.0
  20
0.0
  30
0.0
  70
      1
  75
      5
   0
VERTEX
   5
295
100
AcDbEntity
   8
MAIN
   6
CONTINUOUS
  62
      7
100
AcDbVertex
100
AcDb2dVertex
  10
217.986907
  20
135.09071
  30
0.0
   0
VERTEX
   5
296
100
AcDbEntity
   8
MAIN
   6
CONTINUOUS
  62
      7
100
AcDbVertex
100
AcDb2dVertex
  10
218.095157
  20
135.15321
  30
0.0
   0
VERTEX
   5
297
100
AcDbEntity
   8
MAIN
   6
CONTINUOUS
  62
      7
100
AcDbVertex
100
AcDb2dVertex
  10
218.878647
  20
135.21571
  30
0.0
   0
VERTEX
   5
298
100
AcDbEntity
   8
MAIN
   6
CONTINUOUS
  62
      7
100
AcDbVertex
100
AcDb2dVertex
  10
218.986897
  20
135.15321
  30
0.0
   0
SEQEND
   5
299
100
AcDbEntity
   8
MAIN
   6
CONTINUOUS
   0
POLYLINE
   5
29A
100
AcDbEntity
   8
MAIN
   6
CONTINUOUS
  62
      7
100
AcDb2dPolyline
  66
      1
  10
0.0
  20
0.0
  30
0.0
  70
      1
  75
      5
   0
VERTEX
   5
29B
100
AcDbEntity
   8
MAIN
   6
CONTINUOUS
  62
      7
100
AcDbVertex
100
AcDb2dVertex
  10
218.878647
  20
135.21571
  30
0.0
   0
VERTEX
   5
29C
100
AcDbEntity
   8
MAIN
   6
CONTINUOUS
  62
      7
100
AcDbVertex
100
AcDb2dVertex
  10
218.986897
  20
135.27821
  30
0.0
   0
VERTEX
   5
29D
100
AcDbEntity
   8
MAIN
   6
CONTINUOUS
  62
      7
100
AcDbVertex
100
AcDb2dVertex
  10
217.986897
  20
135.21571
  30
0.0
   0
VERTEX
   5
29E
100
AcDbEntity
   8
MAIN
   6
CONTINUOUS
  62
      7
100
AcDbVertex
100
AcDb2dVertex
  10
218.095147
  20
135.15321
  30
0.0
   0
SEQEND
   5
29F
100
AcDbEntity
   8
MAIN
   6
CONTINUOUS
   0
POLYLINE
   5
2A0
100
AcDbEntity
   8
MAIN
   6
CONTINUOUS
  62
      7
100
AcDb2dPolyline
  66
      1
  10
0.0
  20
0.0
  30
0.0
  70
      1
  75
      5
   0
VERTEX
   5
2A1
100
AcDbEntity
   8
MAIN
   6
CONTINUOUS
  62
      7
100
AcDbVertex
100
AcDb2dVertex
  10
217.986897
  20
135.21571
  30
0.0
   0
VERTEX
   5
2A2
100
AcDbEntity
   8
MAIN
   6
CONTINUOUS
  62
      7
100
AcDbVertex
100
AcDb2dVertex
  10
218.095147
  20
135.27821
  30
0.0
   0
VERTEX
   5
2A3
100
AcDbEntity
   8
MAIN
   6
CONTINUOUS
  62
      7
100
AcDbVertex
100
AcDb2dVertex
  10
218.878637
  20
135.34071
  30
0.0
   0
VERTEX
   5
2A4
100
AcDbEntity
   8
MAIN
   6
CONTINUOUS
  62
      7
100
AcDbVertex
100
AcDb2dVertex
  10
218.986887
  20
135.27821
  30
0.0
   0
SEQEND
   5
2A5
100
AcDbEntity
   8
MAIN
   6
CONTINUOUS
   0
POLYLINE
   5
2A6
100
AcDbEntity
   8
MAIN
   6
CONTINUOUS
  62
      7
100
AcDb2dPolyline
  66
      1
  10
0.0
  20
0.0
  30
0.0
  70
      1
  75
      5
   0
VERTEX
   5
2A7
100
AcDbEntity
   8
MAIN
   6
CONTINUOUS
  62
      7
100
AcDbVertex
100
AcDb2dVertex
  10
218.878637
  20
135.34071
  30
0.0
   0
VERTEX
   5
2A8
100
AcDbEntity
   8
MAIN
   6
CONTINUOUS
  62
      7
100
AcDbVertex
100
AcDb2dVertex
  10
218.986887
  20
135.40321
  30
0.0
   0
VERTEX
   5
2A9
100
AcDbEntity
   8
MAIN
   6
CONTINUOUS
  62
      7
100
AcDbVertex
100
AcDb2dVertex
  10
217.986887
  20
135.34071
  30
0.0
   0
VERTEX
   5
2AA
100
AcDbEntity
   8
MAIN
   6
CONTINUOUS
  62
      7
100
AcDbVertex
100
AcDb2dVertex
  10
218.095137
  20
135.27821
  30
0.0
   0
SEQEND
   5
2AB
100
AcDbEntity
   8
MAIN
   6
CONTINUOUS
   0
POLYLINE
   5
2AC
100
AcDbEntity
   8
MAIN
   6
CONTINUOUS
  62
      7
100
AcDb2dPolyline
  66
      1
  10
0.0
  20
0.0
  30
0.0
  70
      1
  75
      5
   0
VERTEX
   5
2AD
100
AcDbEntity
   8
MAIN
   6
CONTINUOUS
  62
      7
100
AcDbVertex
100
AcDb2dVertex
  10
217.986887
  20
135.34071
  30
0.0
   0
VERTEX
   5
2AE
100
AcDbEntity
   8
MAIN
   6
CONTINUOUS
  62
      7
100
AcDbVertex
100
AcDb2dVertex
  10
218.095137
  20
135.40321
  30
0.0
   0
VERTEX
   5
2AF
100
AcDbEntity
   8
MAIN
   6
CONTINUOUS
  62
      7
100
AcDbVertex
100
AcDb2dVertex
  10
218.878627
  20
135.46571
  30
0.0
   0
VERTEX
   5
2B0
100
AcDbEntity
   8
MAIN
   6
CONTINUOUS
  62
      7
100
AcDbVertex
100
AcDb2dVertex
  10
218.986877
  20
135.40321
  30
0.0
   0
SEQEND
   5
2B1
100
AcDbEntity
   8
MAIN
   6
CONTINUOUS
   0
POLYLINE
   5
2B2
100
AcDbEntity
   8
MAIN
   6
CONTINUOUS
  62
      7
100
AcDb2dPolyline
  66
      1
  10
0.0
  20
0.0
  30
0.0
  70
      1
  75
      5
   0
VERTEX
   5
2B3
100
AcDbEntity
   8
MAIN
   6
CONTINUOUS
  62
      7
100
AcDbVertex
100
AcDb2dVertex
  10
218.878627
  20
135.46571
  30
0.0
   0
VERTEX
   5
2B4
100
AcDbEntity
   8
MAIN
   6
CONTINUOUS
  62
      7
100
AcDbVertex
100
AcDb2dVertex
  10
218.986877
  20
135.52821
  30
0.0
   0
VERTEX
   5
2B5
100
AcDbEntity
   8
MAIN
   6
CONTINUOUS
  62
      7
100
AcDbVertex
100
AcDb2dVertex
  10
217.986877
  20
135.46571
  30
0.0
   0
VERTEX
   5
2B6
100
AcDbEntity
   8
MAIN
   6
CONTINUOUS
  62
      7
100
AcDbVertex
100
AcDb2dVertex
  10
218.095127
  20
135.40321
  30
0.0
   0
SEQEND
   5
2B7
100
AcDbEntity
   8
MAIN
   6
CONTINUOUS
   0
POLYLINE
   5
2B8
100
AcDbEntity
   8
MAIN
   6
CONTINUOUS
  62
      7
100
AcDb2dPolyline
  66
      1
  10
0.0
  20
0.0
  30
0.0
  70
      1
  75
      5
   0
VERTEX
   5
2B9
100
AcDbEntity
   8
MAIN
   6
CONTINUOUS
  62
      7
100
AcDbVertex
100
AcDb2dVertex
  10
217.986877
  20
135.46571
  30
0.0
   0
VERTEX
   5
2BA
100
AcDbEntity
   8
MAIN
   6
CONTINUOUS
  62
      7
100
AcDbVertex
100
AcDb2dVertex
  10
218.095127
  20
135.52821
  30
0.0
   0
VERTEX
   5
2BB
100
AcDbEntity
   8
MAIN
   6
CONTINUOUS
  62
      7
100
AcDbVertex
100
AcDb2dVertex
  10
218.878617
  20
135.59071
  30
0.0
   0
VERTEX
   5
2BC
100
AcDbEntity
   8
MAIN
   6
CONTINUOUS
  62
      7
100
AcDbVertex
100
AcDb2dVertex
  10
218.986867
  20
135.52821
  30
0.0
   0
SEQEND
   5
2BD
100
AcDbEntity
   8
MAIN
   6
CONTINUOUS
   0
POLYLINE
   5
2BE
100
AcDbEntity
   8
MAIN
   6
CONTINUOUS
  62
      7
100
AcDb2dPolyline
  66
      1
  10
0.0
  20
0.0
  30
0.0
  70
      1
  75
      5
   0
VERTEX
   5
2BF
100
AcDbEntity
   8
MAIN
   6
CONTINUOUS
  62
      7
100
AcDbVertex
100
AcDb2dVertex
  10
218.878617
  20
135.59071
  30
0.0
   0
VERTEX
   5
2C0
100
AcDbEntity
   8
MAIN
   6
CONTINUOUS
  62
      7
100
AcDbVertex
100
AcDb2dVertex
  10
218.986867
  20
135.65321
  30
0.0
   0
VERTEX
   5
2C1
100
AcDbEntity
   8
MAIN
   6
CONTINUOUS
  62
      7
100
AcDbVertex
100
AcDb2dVertex
  10
217.986867
  20
135.59071
  30
0.0
   0
VERTEX
   5
2C2
100
AcDbEntity
   8
MAIN
   6
CONTINUOUS
  62
      7
100
AcDbVertex
100
AcDb2dVertex
  10
218.095117
  20
135.52821
  30
0.0
   0
SEQEND
   5
2C3
100
AcDbEntity
   8
MAIN
   6
CONTINUOUS
   0
POLYLINE
   5
2C4
100
AcDbEntity
   8
MAIN
   6
CONTINUOUS
  62
      7
100
AcDb2dPolyline
  66
      1
  10
0.0
  20
0.0
  30
0.0
  75
      5
   0
VERTEX
   5
2C5
100
AcDbEntity
   8
MAIN
   6
CONTINUOUS
  62
      7
100
AcDbVertex
100
AcDb2dVertex
  10
218.986867
  20
135.65321
  30
0.0
   0
VERTEX
   5
2C6
100
AcDbEntity
   8
MAIN
   6
CONTINUOUS
  62
      7
100
AcDbVertex
100
AcDb2dVertex
  10
217.986867
  20
135.59071
  30
0.0
   0
VERTEX
   5
2C7
100
AcDbEntity
   8
MAIN
   6
CONTINUOUS
  62
      7
100
AcDbVertex
100
AcDb2dVertex
  10
218.095117
  20
135.65321
  30
0.0
   0
SEQEND
   5
2C8
100
AcDbEntity
   8
MAIN
   6
CONTINUOUS
   0
POLYLINE
   5
2C9
100
AcDbEntity
   8
MAIN
   6
CONTINUOUS
  62
      7
100
AcDb2dPolyline
  66
      1
  10
0.0
  20
0.0
  30
0.0
  70
      1
  75
      5
   0
VERTEX
   5
2CA
100
AcDbEntity
   8
MAIN
   6
CONTINUOUS
  62
      7
100
AcDbVertex
100
AcDb2dVertex
  10
218.095117
  20
135.65321
  30
0.0
   0
VERTEX
   5
2CB
100
AcDbEntity
   8
MAIN
   6
CONTINUOUS
  62
      7
100
AcDbVertex
100
AcDb2dVertex
  10
218.040987
  20
135.68446
  30
0.0
   0
VERTEX
   5
2CC
100
AcDbEntity
   8
MAIN
   6
CONTINUOUS
  62
      7
100
AcDbVertex
100
AcDb2dVertex
  10
218.486857
  20
135.68446
  30
0.0
   0
VERTEX
   5
2CD
100
AcDbEntity
   8
MAIN
   6
CONTINUOUS
  62
      7
100
AcDbVertex
100
AcDb2dVertex
  10
218.095107
  20
135.65321
  30
0.0
   0
SEQEND
   5
2CE
100
AcDbEntity
   8
MAIN
   6
CONTINUOUS
   0
LINE
   5
2CF
100
AcDbEntity
   8
MAIN
   6
CONTINUOUS
  62
      5
100
AcDbLine
  10
191.820457
  20
146.19515
  30
0.0
  11
191.820457
  21
139.27064
  31
0.0
   0
LWPOLYLINE
   5
2D0
100
AcDbEntity
   8
MAIN
   6
CONTINUOUS
  62
      7
100
AcDbPolyline
  90
         5
  70
    129
  10
179.820457
  20
155.85759
  10
203.820457
  20
155.85759
  10
203.820457
  20
137.85759
  10
179.820457
  20
137.85759
  10
179.820457
  20
155.85759
   0
INSERT
   5
2D1
100
AcDbEntity
   8
MAIN
100
AcDbBlockReference
   2
*G0
  10
206.879887
  20
145.25827
  30
0.0
   0
LWPOLYLINE
   5
2D2
100
AcDbEntity
   8
MAIN
   6
CONTINUOUS
  62
      7
100
AcDbPolyline
  90
         5
  70
    129
  10
191.039207
  20
155.85758
  10
192.601707
  20
155.85758
  10
192.601707
  20
148.0884
  10
191.039207
  20
148.0884
  10
191.039207
  20
155.85758
   0
INSERT
   5
2D3
100
AcDbEntity
   8
MAIN
100
AcDbBlockReference
   2
*G1
  10
206.879887
  20
145.25827
  30
0.0
   0
CIRCLE
   5
2D4
100
AcDbEntity
   8
MAIN
   6
CONTINUOUS
  62
      7
100
AcDbCircle
  10
197.797867
  20
154.69772
  30
0.0
  40
0.5
   0
INSERT
   5
2D5
100
AcDbEntity
   8
MAIN
100
AcDbBlockReference
   2
*G2
  10
206.879887
  20
145.25827
  30
0.0
   0
CIRCLE
   5
2D6
100
AcDbEntity
   8
MAIN
   6
CONTINUOUS
  62
      7
100
AcDbCircle
  10
185.843047
  20
154.69772
  30
0.0
  40
0.5
   0
INSERT
   5
2D7
100
AcDbEntity
   8
MAIN
100
AcDbBlockReference
   2
*G3
  10
206.879887
  20
145.25827
  30
0.0
   0
INSERT
   5
2D8
100
AcDbEntity
   8
MAIN
100
AcDbBlockReference
   2
*G4
  10
206.879887
  20
145.25827
  30
0.0
   0
ARC
   5
2D9
100
AcDbEntity
   8
MAIN
   6
CONTINUOUS
  62
      5
100
AcDbCircle
  10
185.843047
  20
154.69772
  30
0.0
  40
8.0
100
AcDbArc
  50
251.452467
  51
288.795646
   0
ARC
   5
2DA
100
AcDbEntity
   8
MAIN
   6
CONTINUOUS
  62
      7
100
AcDbCircle
  10
185.843047
  20
154.69772
  30
0.0
  40
7.21875
100
AcDbArc
  50
253.665123
  51
286.334877
   0
ARC
   5
2DB
100
AcDbEntity
   8
MAIN
   6
CONTINUOUS
  62
      7
100
AcDbCircle
  10
185.843047
  20
154.69772
  30
0.0
  40
8.78125
100
AcDbArc
  50
253.665298
  51
286.334702
   0
LINE
   5
2DC
100
AcDbEntity
   8
MAIN
   6
CONTINUOUS
  62
      5
100
AcDbLine
  10
186.028897
  20
155.33186
  30
0.0
  11
181.907847
  21
141.27064
  31
0.0
   0
LINE
   5
2DD
100
AcDbEntity
   8
MAIN
   6
CONTINUOUS
  62
      5
100
AcDbLine
  10
185.652587
  20
155.34748
  30
0.0
  11
190.053017
  21
140.33314
  31
0.0
   0
INSERT
   5
2DE
100
AcDbEntity
   8
MAIN
100
AcDbBlockReference
   2
*G5
  10
206.879887
  20
145.25827
  30
0.0
   0
INSERT
   5
2DF
100
AcDbEntity
   8
MAIN
100
AcDbBlockReference
   2
*G6
  10
206.879887
  20
145.25827
  30
0.0
   0
ARC
   5
2E0
100
AcDbEntity
   8
MAIN
   6
CONTINUOUS
  62
      5
100
AcDbCircle
  10
197.797867
  20
154.69772
  30
0.0
  40
8.0
100
AcDbArc
  50
251.452467
  51
288.795646
   0
ARC
   5
2E1
100
AcDbEntity
   8
MAIN
   6
CONTINUOUS
  62
      7
100
AcDbCircle
  10
197.797867
  20
154.69772
  30
0.0
  40
7.21875
100
AcDbArc
  50
253.665123
  51
286.334877
   0
ARC
   5
2E2
100
AcDbEntity
   8
MAIN
   6
CONTINUOUS
  62
      7
100
AcDbCircle
  10
197.797867
  20
154.69772
  30
0.0
  40
8.78125
100
AcDbArc
  50
253.665298
  51
286.334702
   0
LINE
   5
2E3
100
AcDbEntity
   8
MAIN
   6
CONTINUOUS
  62
      5
100
AcDbLine
  10
197.992877
  20
155.3631
  30
0.0
  11
193.862667
  21
141.27064
  31
0.0
   0
LINE
   5
2E4
100
AcDbEntity
   8
MAIN
   6
CONTINUOUS
  62
      5
100
AcDbLine
  10
197.600547
  20
155.37091
  30
0.0
  11
202.007837
  21
140.33314
  31
0.0
   0
ARC
   5
2E5
100
AcDbEntity
   8
MAIN
   6
CONTINUOUS
  62
      1
100
AcDbCircle
  10
197.797867
  20
154.69772
  30
0.0
  40
12.0
100
AcDbArc
  50
253.665231
  51
286.334829
   0
INSERT
   5
2E6
100
AcDbEntity
   8
MAIN
100
AcDbBlockReference
   2
*G7
  10
206.879887
  20
145.25827
  30
0.0
   0
INSERT
   5
2E7
100
AcDbEntity
   8
MAIN
100
AcDbBlockReference
   2
*G8
  10
206.879887
  20
145.25827
  30
0.0
   0
ARC
   5
2E8
100
AcDbEntity
   8
MAIN
   6
CONTINUOUS
  62
      5
100
AcDbCircle
  10
185.843047
  20
154.69772
  30
0.0
  40
12.0
100
AcDbArc
  50
253.665231
  51
286.334829
   0
ARC
   5
2E9
100
AcDbEntity
   8
MAIN
   6
CONTINUOUS
  62
      7
100
AcDbCircle
  10
185.843047
  20
154.69772
  30
0.0
  40
12.53125
100
AcDbArc
  50
253.665239
  51
286.334761
   0
ARC
   5
2EA
100
AcDbEntity
   8
MAIN
   6
CONTINUOUS
  62
      7
100
AcDbCircle
  10
185.843047
  20
154.69772
  30
0.0
  40
11.46875
100
AcDbArc
  50
253.665208
  51
286.334792
   0
INSERT
   5
2EB
100
AcDbEntity
   8
MAIN
100
AcDbBlockReference
   2
*G9
  10
206.879887
  20
145.25827
  30
0.0
   0
INSERT
   5
2EC
100
AcDbEntity
   8
MAIN
100
AcDbBlockReference
   2
*G10
  10
206.879887
  20
145.25827
  30
0.0
   0
ARC
   5
2ED
100
AcDbEntity
   8
MAIN
   6
CONTINUOUS
  62
      5
100
AcDbCircle
  10
197.797867
  20
154.69772
  30
0.0
  40
12.0
100
AcDbArc
  50
253.665231
  51
286.334829
   0
ARC
   5
2EE
100
AcDbEntity
   8
MAIN
   6
CONTINUOUS
  62
      7
100
AcDbCircle
  10
197.797867
  20
154.69772
  30
0.0
  40
12.53125
100
AcDbArc
  50
253.665239
  51
286.334761
   0
ARC
   5
2EF
100
AcDbEntity
   8
MAIN
   6
CONTINUOUS
  62
      7
100
AcDbCircle
  10
197.797867
  20
154.69772
  30
0.0
  40
11.46875
100
AcDbArc
  50
253.665208
  51
286.334792
   0
INSERT
   5
2F0
100
AcDbEntity
   8
MAIN
100
AcDbBlockReference
   2
*G11
  10
206.879887
  20
145.25827
  30
0.0
   0
INSERT
   5
2F1
100
AcDbEntity
   8
MAIN
100
AcDbBlockReference
   2
*G12
  10
206.879887
  20
145.25827
  30
0.0
   0
LINE
   5
2F2
100
AcDbEntity
   8
MAIN
   6
CONTINUOUS
  62
      5
100
AcDbLine
  10
179.695457
  20
155.85759
  30
0.0
  11
177.770457
  21
155.85759
  31
0.0
   0
LINE
   5
2F3
100
AcDbEntity
   8
MAIN
   6
CONTINUOUS
  62
      5
100
AcDbLine
  10
179.695457
  20
137.85759
  30
0.0
  11
177.770457
  21
137.85759
  31
0.0
   0
LINE
   5
2F4
100
AcDbEntity
   8
MAIN
   6
CONTINUOUS
  62
      5
100
AcDbLine
  10
178.020457
  20
155.98259
  30
0.0
  11
178.020457
  21
155.85759
  31
0.0
   0
LINE
   5
2F5
100
AcDbEntity
   8
MAIN
   6
CONTINUOUS
  62
      5
100
AcDbLine
  10
178.020457
  20
137.85759
  30
0.0
  11
178.020457
  21
137.73259
  31
0.0
   0
LINE
   5
2F7
100
AcDbEntity
   8
MAIN
  62
      5
100
AcDbLine
  10
178.108847
  20
155.7692
  30
0.0
  11
177.932067
  21
155.94598
  31
0.0
   0
LINE
   5
2F8
100
AcDbEntity
   8
MAIN
  62
      5
100
AcDbLine
  10
177.932067
  20
137.94598
  30
0.0
  11
178.108847
  21
137.7692
  31
0.0
   0
LINE
   5
2F6
100
AcDbEntity
   8
MAIN
   6
CONTINUOUS
  62
      5
100
AcDbLine
  10
178.020457
  20
155.85759
  30
0.0
  11
178.020457
  21
137.85759
  31
0.0
   0
INSERT
   5
2F9
100
AcDbEntity
   8
MAIN
100
AcDbBlockReference
   2
*G13
  10
206.879887
  20
145.25827
  30
0.0
   0
LINE
   5
2FA
100
AcDbEntity
   8
MAIN
   6
CONTINUOUS
  62
      5
100
AcDbLine
  10
179.820457
  20
137.73259
  30
0.0
  11
179.820457
  21
132.31759
  31
0.0
   0
LINE
   5
2FB
100
AcDbEntity
   8
MAIN
   6
CONTINUOUS
  62
      5
100
AcDbLine
  10
203.820457
  20
137.73259
  30
0.0
  11
203.820457
  21
132.31759
  31
0.0
   0
LINE
   5
2FC
100
AcDbEntity
   8
MAIN
   6
CONTINUOUS
  62
      5
100
AcDbLine
  10
179.695457
  20
132.56759
  30
0.0
  11
179.820457
  21
132.56759
  31
0.0
   0
LINE
   5
2FD
100
AcDbEntity
   8
MAIN
   6
CONTINUOUS
  62
      5
100
AcDbLine
  10
203.820457
  20
132.56759
  30
0.0
  11
203.945457
  21
132.56759
  31
0.0
   0
LINE
   5
2FF
100
AcDbEntity
   8
MAIN
  62
      5
100
AcDbLine
  10
179.908847
  20
132.65598
  30
0.0
  11
179.732067
  21
132.4792
  31
0.0
   0
LINE
   5
300
100
AcDbEntity
   8
MAIN
  62
      5
100
AcDbLine
  10
203.732067
  20
132.4792
  30
0.0
  11
203.908847
  21
132.65598
  31
0.0
   0
LINE
   5
2FE
100
AcDbEntity
   8
MAIN
   6
CONTINUOUS
  62
      5
100
AcDbLine
  10
179.820457
  20
132.56759
  30
0.0
  11
203.820457
  21
132.56759
  31
0.0
   0
INSERT
   5
301
100
AcDbEntity
   8
MAIN
100
AcDbBlockReference
   2
*G14
  10
206.879887
  20
145.25827
  30
0.0
   0
LINE
   5
302
100
AcDbEntity
   8
MAIN
   6
CONTINUOUS
  62
      5
100
AcDbLine
  10
191.820457
  20
150.10665
  30
0.0
  11
191.820457
  21
157.74171
  31
0.0
   0
LINE
   5
303
100
AcDbEntity
   8
MAIN
   6
CONTINUOUS
  62
      5
100
AcDbLine
  10
203.820457
  20
155.98259
  30
0.0
  11
203.820457
  21
157.74171
  31
0.0
   0
LINE
   5
304
100
AcDbEntity
   8
MAIN
   6
CONTINUOUS
  62
      5
100
AcDbLine
  10
191.695457
  20
157.49171
  30
0.0
  11
191.820457
  21
157.49171
  31
0.0
   0
LINE
   5
305
100
AcDbEntity
   8
MAIN
   6
CONTINUOUS
  62
      5
100
AcDbLine
  10
203.820457
  20
157.49171
  30
0.0
  11
203.945457
  21
157.49171
  31
0.0
   0
LINE
   5
307
100
AcDbEntity
   8
MAIN
  62
      5
100
AcDbLine
  10
191.908847
  20
157.5801
  30
0.0
  11
191.732067
  21
157.40332
  31
0.0
   0
LINE
   5
308
100
AcDbEntity
   8
MAIN
  62
      5
100
AcDbLine
  10
203.732067
  20
157.40332
  30
0.0
  11
203.908847
  21
157.5801
  31
0.0
   0
LINE
   5
306
100
AcDbEntity
   8
MAIN
   6
CONTINUOUS
  62
      5
100
AcDbLine
  10
191.820457
  20
157.49171
  30
0.0
  11
203.820457
  21
157.49171
  31
0.0
   0
INSERT
   5
309
100
AcDbEntity
   8
MAIN
100
AcDbBlockReference
   2
*G15
  10
206.879887
  20
145.25827
  30
0.0
   0
LINE
   5
30A
100
AcDbEntity
   8
MAIN
   6
CONTINUOUS
  62
      5
100
AcDbLine
  10
192.601707
  20
155.98258
  30
0.0
  11
192.601707
  21
156.90759
  31
0.0
   0
LINE
   5
30B
100
AcDbEntity
   8
MAIN
   6
CONTINUOUS
  62
      5
100
AcDbLine
  10
191.039207
  20
155.98258
  30
0.0
  11
191.039207
  21
156.90759
  31
0.0
   0
LINE
   5
30C
100
AcDbEntity
   8
MAIN
   6
CONTINUOUS
  62
      5
100
AcDbLine
  10
192.726707
  20
156.65759
  30
0.0
  11
192.601707
  21
156.65759
  31
0.0
   0
LINE
   5
30D
100
AcDbEntity
   8
MAIN
   6
CONTINUOUS
  62
      5
100
AcDbLine
  10
191.039207
  20
156.65759
  30
0.0
  11
190.914207
  21
156.65759
  31
0.0
   0
LINE
   5
30F
100
AcDbEntity
   8
MAIN
  62
      5
100
AcDbLine
  10
192.513317
  20
156.5692
  30
0.0
  11
192.690097
  21
156.74598
  31
0.0
   0
LINE
   5
310
100
AcDbEntity
   8
MAIN
  62
      5
100
AcDbLine
  10
191.127597
  20
156.74598
  30
0.0
  11
190.950817
  21
156.5692
  31
0.0
   0
LINE
   5
30E
100
AcDbEntity
   8
MAIN
   6
CONTINUOUS
  62
      5
100
AcDbLine
  10
192.601707
  20
156.65759
  30
0.0
  11
191.039207
  21
156.65759
  31
0.0
   0
INSERT
   5
311
100
AcDbEntity
   8
MAIN
100
AcDbBlockReference
   2
*G16
  10
206.879887
  20
145.25827
  30
0.0
   0
LINE
   5
312
100
AcDbEntity
   8
MAIN
   6
CONTINUOUS
  62
      5
100
AcDbLine
  10
197.917817
  20
154.73288
  30
0.0
  11
199.407997
  21
155.16962
  31
0.0
   0
LINE
   5
313
100
AcDbEntity
   8
MAIN
   6
CONTINUOUS
  62
      5
100
AcDbLine
  10
200.167817
  20
147.0558
  30
0.0
  11
201.657987
  21
147.49253
  31
0.0
   0
LINE
   5
314
100
AcDbEntity
   8
MAIN
   6
CONTINUOUS
  62
      5
100
AcDbLine
  10
199.132927
  20
155.21926
  30
0.0
  11
199.168087
  21
155.09931
  31
0.0
   0
LINE
   5
315
100
AcDbEntity
   8
MAIN
   6
CONTINUOUS
  62
      5
100
AcDbLine
  10
201.418077
  20
147.42222
  30
0.0
  11
201.453237
  21
147.30227
  31
0.0
   0
LINE
   5
317
100
AcDbEntity
   8
MAIN
  62
      5
100
AcDbLine
  10
199.277417
  20
155.03871
  30
0.0
  11
199.058757
  21
155.15991
  31
0.0
   0
LINE
   5
318
100
AcDbEntity
   8
MAIN
  62
      5
100
AcDbLine
  10
201.308747
  20
147.48282
  30
0.0
  11
201.527407
  21
147.36162
  31
0.0
   0
LINE
   5
316
100
AcDbEntity
   8
MAIN
   6
CONTINUOUS
  62
      5
100
AcDbLine
  10
199.168087
  20
155.09931
  30
0.0
  11
201.418077
  21
147.42222
  31
0.0
   0
INSERT
   5
319
100
AcDbEntity
   8
MAIN
100
AcDbBlockReference
   2
*G17
  10
206.879887
  20
145.25827
  30
0.0
   0
LINE
   5
31A
100
AcDbEntity
   8
MAIN
   6
CONTINUOUS
  62
      5
100
AcDbLine
  10
197.917817
  20
154.73288
  30
0.0
  11
200.370857
  21
155.45181
  31
0.0
   0
LINE
   5
31B
100
AcDbEntity
   8
MAIN
   6
CONTINUOUS
  62
      5
100
AcDbLine
  10
201.292807
  20
143.21727
  30
0.0
  11
203.745847
  21
143.9362
  31
0.0
   0
LINE
   5
31C
100
AcDbEntity
   8
MAIN
   6
CONTINUOUS
  62
      5
100
AcDbLine
  10
200.095787
  20
155.50145
  30
0.0
  11
200.130947
  21
155.3815
  31
0.0
   0
LINE
   5
31D
100
AcDbEntity
   8
MAIN
   6
CONTINUOUS
  62
      5
100
AcDbLine
  10
203.505937
  20
143.86589
  30
0.0
  11
203.541097
  21
143.74594
  31
0.0
   0
LINE
   5
31F
100
AcDbEntity
   8
MAIN
  62
      5
100
AcDbLine
  10
200.240277
  20
155.3209
  30
0.0
  11
200.021617
  21
155.4421
  31
0.0
   0
LINE
   5
320
100
AcDbEntity
   8
MAIN
  62
      5
100
AcDbLine
  10
203.396607
  20
143.92649
  30
0.0
  11
203.615267
  21
143.80529
  31
0.0
   0
LINE
   5
31E
100
AcDbEntity
   8
MAIN
   6
CONTINUOUS
  62
      5
100
AcDbLine
  10
200.130947
  20
155.3815
  30
0.0
  11
203.505937
  21
143.86589
  31
0.0
   0
INSERT
   5
321
100
AcDbEntity
   8
MAIN
100
AcDbBlockReference
   2
*G18
  10
206.879887
  20
145.25827
  30
0.0
   0
LINE
   5
322
100
AcDbEntity
   8
MAIN
   6
CONTINUOUS
  62
      5
100
AcDbLine
  10
192.726707
  20
155.85758
  30
0.0
  11
193.963707
  21
155.85758
  31
0.0
   0
LINE
   5
323
100
AcDbEntity
   8
MAIN
   6
CONTINUOUS
  62
      5
100
AcDbLine
  10
192.726707
  20
148.0884
  30
0.0
  11
193.963707
  21
148.0884
  31
0.0
   0
LINE
   5
324
100
AcDbEntity
   8
MAIN
   6
CONTINUOUS
  62
      5
100
AcDbLine
  10
193.713707
  20
155.98258
  30
0.0
  11
193.713707
  21
155.85758
  31
0.0
   0
LINE
   5
325
100
AcDbEntity
   8
MAIN
   6
CONTINUOUS
  62
      5
100
AcDbLine
  10
193.713707
  20
148.0884
  30
0.0
  11
193.713707
  21
147.9634
  31
0.0
   0
LINE
   5
327
100
AcDbEntity
   8
MAIN
  62
      5
100
AcDbLine
  10
193.802097
  20
155.76919
  30
0.0
  11
193.625317
  21
155.94597
  31
0.0
   0
LINE
   5
328
100
AcDbEntity
   8
MAIN
  62
      5
100
AcDbLine
  10
193.625317
  20
148.17679
  30
0.0
  11
193.802097
  21
148.00001
  31
0.0
   0
LINE
   5
326
100
AcDbEntity
   8
MAIN
   6
CONTINUOUS
  62
      5
100
AcDbLine
  10
193.713707
  20
155.85758
  30
0.0
  11
193.713707
  21
148.0884
  31
0.0
   0
INSERT
   5
329
100
AcDbEntity
   8
MAIN
100
AcDbBlockReference
   2
*G19
  10
206.879887
  20
145.25827
  30
0.0
   0
SOLID
   5
32B
100
AcDbEntity
   8
MAIN
  62
      5
100
AcDbTrace
  10
188.367647
  20
147.75204
  30
0.0
  11
188.394697
  21
148.00944
  31
0.0
  12
188.519777
  22
147.96143
  32
0.0
  13
188.519777
  23
147.96143
  33
0.0
   0
LINE
   5
32A
100
AcDbEntity
   8
MAIN
   6
CONTINUOUS
  62
      5
100
AcDbLine
  10
188.367647
  20
147.75204
  30
0.0
  11
188.970457
  21
149.35759
  31
0.0
   0
LINE
   5
32C
100
AcDbEntity
   8
MAIN
   6
CONTINUOUS
  62
      5
100
AcDbLine
  10
188.970457
  20
149.35759
  30
0.0
  11
189.470457
  21
149.35759
  31
0.0
   0
INSERT
   5
32D
100
AcDbEntity
   8
MAIN
100
AcDbBlockReference
   2
*G20
  10
206.879887
  20
145.25827
  30
0.0
   0
SOLID
   5
32F
100
AcDbEntity
   8
MAIN
  62
      5
100
AcDbTrace
  10
186.276057
  20
154.94772
  30
0.0
  11
186.462237
  21
155.12751
  31
0.0
  12
186.527187
  22
155.01033
  32
0.0
  13
186.527187
  23
155.01033
  33
0.0
   0
LINE
   5
32E
100
AcDbEntity
   8
MAIN
   6
CONTINUOUS
  62
      5
100
AcDbLine
  10
186.276057
  20
154.94772
  30
0.0
  11
187.270467
  21
155.52184
  31
0.0
   0
LINE
   5
330
100
AcDbEntity
   8
MAIN
   6
CONTINUOUS
  62
      5
100
AcDbLine
  10
187.270467
  20
155.52184
  30
0.0
  11
187.770467
  21
155.52184
  31
0.0
   0
INSERT
   5
331
100
AcDbEntity
   8
MAIN
100
AcDbBlockReference
   2
*G21
  10
206.879887
  20
145.25827
  30
0.0
   0
SOLID
   5
333
100
AcDbEntity
   8
MAIN
  62
      5
100
AcDbTrace
  10
189.501787
  20
143.63123
  30
0.0
  11
189.581767
  21
143.87738
  31
0.0
  12
189.694127
  22
143.80441
  32
0.0
  13
189.694127
  23
143.80441
  33
0.0
   0
LINE
   5
332
100
AcDbEntity
   8
MAIN
   6
CONTINUOUS
  62
      5
100
AcDbLine
  10
189.501787
  20
143.63123
  30
0.0
  11
189.968047
  21
144.36923
  31
0.0
   0
LINE
   5
334
100
AcDbEntity
   8
MAIN
   6
CONTINUOUS
  62
      5
100
AcDbLine
  10
189.968047
  20
144.36923
  30
0.0
  11
190.468047
  21
144.36923
  31
0.0
   0
INSERT
   5
335
100
AcDbEntity
   8
MAIN
100
AcDbBlockReference
   2
*G22
  10
206.879887
  20
145.25827
  30
0.0
   0
SOLID
   5
337
100
AcDbEntity
   8
MAIN
  62
      5
100
AcDbTrace
  10
192.211087
  20
147.41182
  30
0.0
  11
192.390877
  21
147.22564
  31
0.0
  12
192.273697
  22
147.16069
  32
0.0
  13
192.273697
  23
147.16069
  33
0.0
   0
LINE
   5
336
100
AcDbEntity
   8
MAIN
   6
CONTINUOUS
  62
      5
100
AcDbLine
  10
192.211087
  20
147.41182
  30
0.0
  11
192.790877
  21
146.40759
  31
0.0
   0
LINE
   5
338
100
AcDbEntity
   8
MAIN
   6
CONTINUOUS
  62
      5
100
AcDbLine
  10
192.790877
  20
146.40759
  30
0.0
  11
193.290877
  21
146.40759
  31
0.0
   0
INSERT
   5
339
100
AcDbEntity
   8
MAIN
100
AcDbBlockReference
   2
*G23
  10
206.879887
  20
145.25827
  30
0.0
   0
SOLID
   5
33A
100
AcDbEntity
   8
MAIN
  62
      5
100
AcDbTrace
  10
187.347007
  20
149.56608
  30
0.0
  11
187.125157
  21
149.43278
  31
0.0
  12
187.088227
  22
149.56156
  32
0.0
  13
187.088227
  23
149.56156
  33
0.0
   0
SOLID
   5
33B
100
AcDbEntity
   8
MAIN
  62
      5
100
AcDbTrace
  10
184.339067
  20
149.56608
  30
0.0
  11
184.597847
  21
149.56156
  31
0.0
  12
184.560917
  22
149.43278
  32
0.0
  13
184.560917
  23
149.43278
  33
0.0
   0
ARC
   5
33C
100
AcDbEntity
   8
MAIN
   6
CONTINUOUS
  62
      5
100
AcDbCircle
  10
185.843027
  20
154.69768
  30
0.0
  40
5.34745
100
AcDbArc
  50
253.66529
  51
286.334915
   0
INSERT
   5
33D
100
AcDbEntity
   8
MAIN
100
AcDbBlockReference
   2
*G24
  10
206.879887
  20
145.25827
  30
0.0
   0
LINE
   5
33E
100
AcDbEntity
   8
MAIN
   6
CONTINUOUS
  62
      5
100
AcDbLine
  10
179.820457
  20
155.98259
  30
0.0
  11
179.820457
  21
157.65061
  31
0.0
   0
LINE
   5
33F
100
AcDbEntity
   8
MAIN
   6
CONTINUOUS
  62
      5
100
AcDbLine
  10
185.843047
  20
156.17184
  30
0.0
  11
185.843047
  21
157.65061
  31
0.0
   0
LINE
   5
340
100
AcDbEntity
   8
MAIN
   6
CONTINUOUS
  62
      5
100
AcDbLine
  10
179.695457
  20
157.40061
  30
0.0
  11
179.820457
  21
157.40061
  31
0.0
   0
LINE
   5
341
100
AcDbEntity
   8
MAIN
   6
CONTINUOUS
  62
      5
100
AcDbLine
  10
185.843047
  20
157.40061
  30
0.0
  11
185.968047
  21
157.40061
  31
0.0
   0
LINE
   5
343
100
AcDbEntity
   8
MAIN
  62
      5
100
AcDbLine
  10
179.908847
  20
157.489
  30
0.0
  11
179.732067
  21
157.31222
  31
0.0
   0
LINE
   5
344
100
AcDbEntity
   8
MAIN
  62
      5
100
AcDbLine
  10
185.754657
  20
157.31222
  30
0.0
  11
185.931437
  21
157.489
  31
0.0
   0
LINE
   5
342
100
AcDbEntity
   8
MAIN
   6
CONTINUOUS
  62
      5
100
AcDbLine
  10
179.820457
  20
157.40061
  30
0.0
  11
185.843047
  21
157.40061
  31
0.0
   0
INSERT
   5
345
100
AcDbEntity
   8
MAIN
100
AcDbBlockReference
   2
*G25
  10
206.879887
  20
145.25827
  30
0.0
   0
LINE
   5
346
100
AcDbEntity
   8
MAIN
   6
CONTINUOUS
  62
      5
100
AcDbLine
  10
183.824797
  20
154.69772
  30
0.0
  11
178.937127
  21
154.69772
  31
0.0
   0
LINE
   5
347
100
AcDbEntity
   8
MAIN
   6
CONTINUOUS
  62
      5
100
AcDbLine
  10
179.695457
  20
155.85759
  30
0.0
  11
178.937127
  21
155.85759
  31
0.0
   0
LINE
   5
348
100
AcDbEntity
   8
MAIN
   6
CONTINUOUS
  62
      5
100
AcDbLine
  10
179.187127
  20
154.57272
  30
0.0
  11
179.187127
  21
154.69772
  31
0.0
   0
LINE
   5
349
100
AcDbEntity
   8
MAIN
   6
CONTINUOUS
  62
      5
100
AcDbLine
  10
179.187127
  20
155.85759
  30
0.0
  11
179.187127
  21
155.98259
  31
0.0
   0
LINE
   5
34B
100
AcDbEntity
   8
MAIN
  62
      5
100
AcDbLine
  10
179.098737
  20
154.78611
  30
0.0
  11
179.275517
  21
154.60933
  31
0.0
   0
LINE
   5
34C
100
AcDbEntity
   8
MAIN
  62
      5
100
AcDbLine
  10
179.275517
  20
155.7692
  30
0.0
  11
179.098737
  21
155.94598
  31
0.0
   0
LINE
   5
34A
100
AcDbEntity
   8
MAIN
   6
CONTINUOUS
  62
      5
100
AcDbLine
  10
179.187127
  20
154.69772
  30
0.0
  11
179.187127
  21
155.85759
  31
0.0
   0
INSERT
   5
34D
100
AcDbEntity
   8
MAIN
100
AcDbBlockReference
   2
*G26
  10
206.879887
  20
145.25827
  30
0.0
   0
ARC
   5
34E
100
AcDbEntity
   8
MAIN
   6
CONTINUOUS
  62
      7
100
AcDbCircle
  10
191.820457
  20
148.0884
  30
0.0
  40
0.78125
100
AcDbArc
  50
180.0
  51
0.0
   0
LINE
   5
34F
100
AcDbEntity
   8
MAIN
   6
CONTINUOUS
  62
    255
100
AcDbLine
  10
191.039207
  20
155.85758
  30
0.0
  11
192.601707
  21
155.85758
  31
0.0
   0
CIRCLE
   5
350
100
AcDbEntity
   8
MAIN
   6
CONTINUOUS
  62
      7
100
AcDbCircle
  10
189.570457
  20
140.10759
  30
0.0
  40
0.1875
   0
INSERT
   5
351
100
AcDbEntity
   8
MAIN
100
AcDbBlockReference
   2
*G27
  10
206.879887
  20
145.25827
  30
0.0
   0
CIRCLE
   5
352
100
AcDbEntity
   8
MAIN
   6
CONTINUOUS
  62
      7
100
AcDbCircle
  10
189.570457
  20
138.35759
  30
0.0
  40
0.1875
   0
INSERT
   5
353
100
AcDbEntity
   8
MAIN
100
AcDbBlockReference
   2
*G28
  10
206.879887
  20
145.25827
  30
0.0
   0
CIRCLE
   5
354
100
AcDbEntity
   8
MAIN
   6
CONTINUOUS
  62
      7
100
AcDbCircle
  10
194.070457
  20
140.10759
  30
0.0
  40
0.1875
   0
INSERT
   5
355
100
AcDbEntity
   8
MAIN
100
AcDbBlockReference
   2
*G29
  10
206.879887
  20
145.25827
  30
0.0
   0
CIRCLE
   5
356
100
AcDbEntity
   8
MAIN
   6
CONTINUOUS
  62
      7
100
AcDbCircle
  10
194.070457
  20
138.35759
  30
0.0
  40
0.1875
   0
INSERT
   5
357
100
AcDbEntity
   8
MAIN
100
AcDbBlockReference
   2
*G30
  10
206.879887
  20
145.25827
  30
0.0
   0
LINE
   5
358
100
AcDbEntity
   8
MAIN
   6
CONTINUOUS
  62
      5
100
AcDbLine
  10
189.570457
  20
137.98259
  30
0.0
  11
189.570457
  21
135.63759
  31
0.0
   0
LINE
   5
359
100
AcDbEntity
   8
MAIN
   6
CONTINUOUS
  62
      5
100
AcDbLine
  10
194.070457
  20
137.98259
  30
0.0
  11
194.070457
  21
135.63759
  31
0.0
   0
LINE
   5
35A
100
AcDbEntity
   8
MAIN
   6
CONTINUOUS
  62
      5
100
AcDbLine
  10
189.445457
  20
135.88759
  30
0.0
  11
189.570457
  21
135.88759
  31
0.0
   0
LINE
   5
35B
100
AcDbEntity
   8
MAIN
   6
CONTINUOUS
  62
      5
100
AcDbLine
  10
194.070457
  20
135.88759
  30
0.0
  11
194.195457
  21
135.88759
  31
0.0
   0
LINE
   5
35D
100
AcDbEntity
   8
MAIN
  62
      5
100
AcDbLine
  10
189.658847
  20
135.97598
  30
0.0
  11
189.482067
  21
135.7992
  31
0.0
   0
LINE
   5
35E
100
AcDbEntity
   8
MAIN
  62
      5
100
AcDbLine
  10
193.982067
  20
135.7992
  30
0.0
  11
194.158847
  21
135.97598
  31
0.0
   0
LINE
   5
35C
100
AcDbEntity
   8
MAIN
   6
CONTINUOUS
  62
      5
100
AcDbLine
  10
189.570457
  20
135.88759
  30
0.0
  11
194.070457
  21
135.88759
  31
0.0
   0
INSERT
   5
35F
100
AcDbEntity
   8
MAIN
100
AcDbBlockReference
   2
*G31
  10
206.879887
  20
145.25827
  30
0.0
   0
LINE
   5
360
100
AcDbEntity
   8
MAIN
   6
CONTINUOUS
  62
      5
100
AcDbLine
  10
194.195457
  20
140.10759
  30
0.0
  11
195.880457
  21
140.10759
  31
0.0
   0
LINE
   5
361
100
AcDbEntity
   8
MAIN
   6
CONTINUOUS
  62
      5
100
AcDbLine
  10
194.445457
  20
138.35759
  30
0.0
  11
195.880457
  21
138.35759
  31
0.0
   0
LINE
   5
362
100
AcDbEntity
   8
MAIN
   6
CONTINUOUS
  62
      5
100
AcDbLine
  10
195.630457
  20
140.23259
  30
0.0
  11
195.630457
  21
140.10759
  31
0.0
   0
LINE
   5
363
100
AcDbEntity
   8
MAIN
   6
CONTINUOUS
  62
      5
100
AcDbLine
  10
195.630457
  20
138.35759
  30
0.0
  11
195.630457
  21
138.23259
  31
0.0
   0
LINE
   5
365
100
AcDbEntity
   8
MAIN
  62
      5
100
AcDbLine
  10
195.718847
  20
140.0192
  30
0.0
  11
195.542067
  21
140.19598
  31
0.0
   0
LINE
   5
366
100
AcDbEntity
   8
MAIN
  62
      5
100
AcDbLine
  10
195.542067
  20
138.44598
  30
0.0
  11
195.718847
  21
138.2692
  31
0.0
   0
LINE
   5
364
100
AcDbEntity
   8
MAIN
   6
CONTINUOUS
  62
      5
100
AcDbLine
  10
195.630457
  20
140.10759
  30
0.0
  11
195.630457
  21
138.35759
  31
0.0
   0
INSERT
   5
367
100
AcDbEntity
   8
MAIN
100
AcDbBlockReference
   2
*G32
  10
206.879887
  20
145.25827
  30
0.0
   0
LINE
   5
368
100
AcDbEntity
   8
MAIN
   6
CONTINUOUS
  62
      5
100
AcDbLine
  10
194.445457
  20
138.35759
  30
0.0
  11
196.440077
  21
138.35759
  31
0.0
   0
LINE
   5
369
100
AcDbEntity
   8
MAIN
   6
CONTINUOUS
  62
      5
100
AcDbLine
  10
194.195457
  20
137.85759
  30
0.0
  11
196.440077
  21
137.85759
  31
0.0
   0
LINE
   5
36A
100
AcDbEntity
   8
MAIN
   6
CONTINUOUS
  62
      5
100
AcDbLine
  10
196.190077
  20
138.48259
  30
0.0
  11
196.190077
  21
138.35759
  31
0.0
   0
LINE
   5
36B
100
AcDbEntity
   8
MAIN
   6
CONTINUOUS
  62
      5
100
AcDbLine
  10
196.190077
  20
137.85759
  30
0.0
  11
196.190077
  21
137.73259
  31
0.0
   0
LINE
   5
36C
100
AcDbEntity
   8
MAIN
   6
CONTINUOUS
  62
      5
100
AcDbLine
  10
196.190077
  20
137.85759
  30
0.0
  11
196.190077
  21
136.3776
  31
0.0
   0
LINE
   5
36E
100
AcDbEntity
   8
MAIN
  62
      5
100
AcDbLine
  10
196.278467
  20
138.2692
  30
0.0
  11
196.101687
  21
138.44598
  31
0.0
   0
LINE
   5
36F
100
AcDbEntity
   8
MAIN
  62
      5
100
AcDbLine
  10
196.101687
  20
137.94598
  30
0.0
  11
196.278467
  21
137.7692
  31
0.0
   0
LINE
   5
36D
100
AcDbEntity
   8
MAIN
   6
CONTINUOUS
  62
      5
100
AcDbLine
  10
196.190077
  20
138.35759
  30
0.0
  11
196.190077
  21
137.85759
  31
0.0
   0
INSERT
   5
370
100
AcDbEntity
   8
MAIN
100
AcDbBlockReference
   2
*G33
  10
206.879887
  20
145.25827
  30
0.0
   0
SOLID
   5
372
100
AcDbEntity
   8
MAIN
  62
      5
100
AcDbTrace
  10
189.703037
  20
138.22501
  30
0.0
  11
189.927177
  21
138.0956
  31
0.0
  12
189.832447
  22
138.00087
  32
0.0
  13
189.832447
  23
138.00087
  33
0.0
   0
LINE
   5
371
100
AcDbEntity
   8
MAIN
   6
CONTINUOUS
  62
      5
100
AcDbLine
  10
189.703037
  20
138.22501
  30
0.0
  11
190.620457
  21
137.30759
  31
0.0
   0
LINE
   5
373
100
AcDbEntity
   8
MAIN
   6
CONTINUOUS
  62
      5
100
AcDbLine
  10
190.620457
  20
137.30759
  30
0.0
  11
191.120457
  21
137.30759
  31
0.0
   0
INSERT
   5
374
100
AcDbEntity
   8
MAIN
100
AcDbBlockReference
   2
*G34
  10
206.879887
  20
145.25827
  30
0.0
   0
ARC
   5
375
100
AcDbEntity
   8
MAIN
   6
CONTINUOUS
  62
      7
100
AcDbCircle
  10
183.593057
  20
147.02064
  30
0.0
  40
0.78125
100
AcDbArc
  50
73.666457
  51
253.580826
   0
ARC
   5
376
100
AcDbEntity
   8
MAIN
   6
CONTINUOUS
  62
      7
100
AcDbCircle
  10
188.093047
  20
147.02064
  30
0.0
  40
0.78125
100
AcDbArc
  50
286.333543
  51
106.334247
   0
ARC
   5
377
100
AcDbEntity
   8
MAIN
   6
CONTINUOUS
  62
      7
100
AcDbCircle
  10
182.468057
  20
143.18211
  30
0.0
  40
0.53124
100
AcDbArc
  50
73.66542
  51
253.665724
   0
ARC
   5
378
100
AcDbEntity
   8
MAIN
   6
CONTINUOUS
  62
      7
100
AcDbCircle
  10
189.218037
  20
143.1821
  30
0.0
  40
0.53124
100
AcDbArc
  50
286.33458
  51
106.334276
   0
ARC
   5
379
100
AcDbEntity
   8
MAIN
   6
CONTINUOUS
  62
      7
100
AcDbCircle
  10
195.547887
  20
147.02064
  30
0.0
  40
0.78125
100
AcDbArc
  50
73.667161
  51
253.665049
   0
ARC
   5
37A
100
AcDbEntity
   8
MAIN
   6
CONTINUOUS
  62
      7
100
AcDbCircle
  10
200.047857
  20
147.02064
  30
0.0
  40
0.78125
100
AcDbArc
  50
286.334247
  51
106.333543
   0
ARC
   5
37B
100
AcDbEntity
   8
MAIN
   6
CONTINUOUS
  62
      7
100
AcDbCircle
  10
194.422877
  20
143.1821
  30
0.0
  40
0.53125
100
AcDbArc
  50
73.665724
  51
253.66542
   0
ARC
   5
37C
100
AcDbEntity
   8
MAIN
   6
CONTINUOUS
  62
      7
100
AcDbCircle
  10
201.172857
  20
143.18211
  30
0.0
  40
0.53125
100
AcDbArc
  50
286.334276
  51
106.33458
   0
POLYLINE
   5
37D
100
AcDbEntity
   8
MAIN
   6
CONTINUOUS
  62
      7
100
AcDb2dPolyline
  66
      1
  10
0.0
  20
0.0
  30
0.0
  70
      1
  75
      5
   0
VERTEX
   5
37E
100
AcDbEntity
   8
MAIN
   6
CONTINUOUS
  62
      7
100
AcDbVertex
100
AcDb2dVertex
  10
217.487147
  20
146.51571
  30
0.0
   0
VERTEX
   5
37F
100
AcDbEntity
   8
MAIN
   6
CONTINUOUS
  62
      7
100
AcDbVertex
100
AcDb2dVertex
  10
216.487147
  20
147.51571
  30
0.0
   0
VERTEX
   5
380
100
AcDbEntity
   8
MAIN
   6
CONTINUOUS
  62
      7
100
AcDbVertex
100
AcDb2dVertex
  10
216.487147
  20
149.51571
  30
0.0
   0
VERTEX
   5
381
100
AcDbEntity
   8
MAIN
   6
CONTINUOUS
  62
      7
100
AcDbVertex
100
AcDb2dVertex
  10
217.487147
  20
150.51571
  30
0.0
   0
VERTEX
   5
382
100
AcDbEntity
   8
MAIN
   6
CONTINUOUS
  62
      7
100
AcDbVertex
100
AcDb2dVertex
  10
231.487147
  20
150.51571
  30
0.0
   0
VERTEX
   5
383
100
AcDbEntity
   8
MAIN
   6
CONTINUOUS
  62
      7
100
AcDbVertex
100
AcDb2dVertex
  10
232.487147
  20
149.51571
  30
0.0
   0
VERTEX
   5
384
100
AcDbEntity
   8
MAIN
   6
CONTINUOUS
  62
      7
100
AcDbVertex
100
AcDb2dVertex
  10
232.487147
  20
147.51571
  30
0.0
   0
VERTEX
   5
385
100
AcDbEntity
   8
MAIN
   6
CONTINUOUS
  62
      7
100
AcDbVertex
100
AcDb2dVertex
  10
231.487147
  20
146.51571
  30
0.0
   0
SEQEND
   5
386
100
AcDbEntity
   8
MAIN
   6
CONTINUOUS
   0
CIRCLE
   5
387
100
AcDbEntity
   8
MAIN
   6
CONTINUOUS
  62
      7
100
AcDbCircle
  10
226.487147
  20
148.51572
  30
0.0
  40
0.74999
   0
CIRCLE
   5
388
100
AcDbEntity
   8
MAIN
   6
CONTINUOUS
  62
      7
100
AcDbCircle
  10
218.487147
  20
148.51571
  30
0.0
  40
0.49999
   0
CIRCLE
   5
389
100
AcDbEntity
   8
MAIN
   6
CONTINUOUS
  62
      7
100
AcDbCircle
  10
230.487137
  20
148.51571
  30
0.0
  40
0.50001
   0
INSERT
   5
38A
100
AcDbEntity
   8
MAIN
100
AcDbBlockReference
   2
*G35
  10
206.879887
  20
145.25827
  30
0.0
   0
INSERT
   5
38B
100
AcDbEntity
   8
MAIN
100
AcDbBlockReference
   2
*G36
  10
206.879887
  20
145.25827
  30
0.0
   0
INSERT
   5
38C
100
AcDbEntity
   8
MAIN
100
AcDbBlockReference
   2
*G37
  10
206.879887
  20
145.25827
  30
0.0
   0
LINE
   5
38D
100
AcDbEntity
   8
MAIN
   6
CONTINUOUS
  62
      5
100
AcDbLine
  10
217.362147
  20
146.51572
  30
0.0
  11
213.826917
  21
146.51572
  31
0.0
   0
LINE
   5
38E
100
AcDbEntity
   8
MAIN
   6
CONTINUOUS
  62
      5
100
AcDbLine
  10
217.362147
  20
150.51571
  30
0.0
  11
213.826917
  21
150.51571
  31
0.0
   0
LINE
   5
38F
100
AcDbEntity
   8
MAIN
   6
CONTINUOUS
  62
      5
100
AcDbLine
  10
214.076917
  20
146.39072
  30
0.0
  11
214.076917
  21
146.51572
  31
0.0
   0
LINE
   5
390
100
AcDbEntity
   8
MAIN
   6
CONTINUOUS
  62
      5
100
AcDbLine
  10
214.076917
  20
150.51571
  30
0.0
  11
214.076917
  21
150.64071
  31
0.0
   0
LINE
   5
392
100
AcDbEntity
   8
MAIN
  62
      5
100
AcDbLine
  10
213.988527
  20
146.60411
  30
0.0
  11
214.165307
  21
146.42733
  31
0.0
   0
LINE
   5
393
100
AcDbEntity
   8
MAIN
  62
      5
100
AcDbLine
  10
214.165307
  20
150.42732
  30
0.0
  11
213.988527
  21
150.6041
  31
0.0
   0
LINE
   5
391
100
AcDbEntity
   8
MAIN
   6
CONTINUOUS
  62
      5
100
AcDbLine
  10
214.076917
  20
146.51572
  30
0.0
  11
214.076917
  21
150.51571
  31
0.0
   0
INSERT
   5
394
100
AcDbEntity
   8
MAIN
100
AcDbBlockReference
   2
*G38
  10
206.879887
  20
145.25827
  30
0.0
   0
LINE
   5
395
100
AcDbEntity
   8
MAIN
   6
CONTINUOUS
  62
      5
100
AcDbLine
  10
216.487147
  20
149.64071
  30
0.0
  11
216.487147
  21
153.81571
  31
0.0
   0
LINE
   5
396
100
AcDbEntity
   8
MAIN
   6
CONTINUOUS
  62
      5
100
AcDbLine
  10
232.487127
  20
149.64071
  30
0.0
  11
232.487127
  21
153.81571
  31
0.0
   0
LINE
   5
397
100
AcDbEntity
   8
MAIN
   6
CONTINUOUS
  62
      5
100
AcDbLine
  10
216.362147
  20
153.56571
  30
0.0
  11
216.487147
  21
153.56571
  31
0.0
   0
LINE
   5
398
100
AcDbEntity
   8
MAIN
   6
CONTINUOUS
  62
      5
100
AcDbLine
  10
232.487127
  20
153.56571
  30
0.0
  11
232.612127
  21
153.56571
  31
0.0
   0
LINE
   5
39A
100
AcDbEntity
   8
MAIN
  62
      5
100
AcDbLine
  10
216.575537
  20
153.6541
  30
0.0
  11
216.398757
  21
153.47732
  31
0.0
   0
LINE
   5
39B
100
AcDbEntity
   8
MAIN
  62
      5
100
AcDbLine
  10
232.398737
  20
153.47732
  30
0.0
  11
232.575517
  21
153.6541
  31
0.0
   0
LINE
   5
399
100
AcDbEntity
   8
MAIN
   6
CONTINUOUS
  62
      5
100
AcDbLine
  10
216.487147
  20
153.56571
  30
0.0
  11
232.487127
  21
153.56571
  31
0.0
   0
INSERT
   5
39C
100
AcDbEntity
   8
MAIN
100
AcDbBlockReference
   2
*G39
  10
206.879887
  20
145.25827
  30
0.0
   0
LINE
   5
39D
100
AcDbEntity
   8
MAIN
   6
CONTINUOUS
  62
      5
100
AcDbLine
  10
216.362147
  20
147.51572
  30
0.0
  11
215.344537
  21
147.51572
  31
0.0
   0
LINE
   5
39E
100
AcDbEntity
   8
MAIN
   6
CONTINUOUS
  62
      5
100
AcDbLine
  10
217.362147
  20
146.51572
  30
0.0
  11
215.344537
  21
146.51572
  31
0.0
   0
LINE
   5
39F
100
AcDbEntity
   8
MAIN
   6
CONTINUOUS
  62
      5
100
AcDbLine
  10
215.594537
  20
147.64072
  30
0.0
  11
215.594537
  21
147.51572
  31
0.0
   0
LINE
   5
3A0
100
AcDbEntity
   8
MAIN
   6
CONTINUOUS
  62
      5
100
AcDbLine
  10
215.594537
  20
146.51572
  30
0.0
  11
215.594537
  21
146.39072
  31
0.0
   0
LINE
   5
3A2
100
AcDbEntity
   8
MAIN
  62
      5
100
AcDbLine
  10
215.682927
  20
147.42733
  30
0.0
  11
215.506147
  21
147.60411
  31
0.0
   0
LINE
   5
3A3
100
AcDbEntity
   8
MAIN
  62
      5
100
AcDbLine
  10
215.506147
  20
146.60411
  30
0.0
  11
215.682927
  21
146.42733
  31
0.0
   0
LINE
   5
3A1
100
AcDbEntity
   8
MAIN
   6
CONTINUOUS
  62
      5
100
AcDbLine
  10
215.594537
  20
147.51572
  30
0.0
  11
215.594537
  21
146.51572
  31
0.0
   0
INSERT
   5
3A4
100
AcDbEntity
   8
MAIN
100
AcDbBlockReference
   2
*G40
  10
206.879887
  20
145.25827
  30
0.0
   0
LINE
   5
3A5
100
AcDbEntity
   8
MAIN
   6
CONTINUOUS
  62
      5
100
AcDbLine
  10
216.487147
  20
147.39072
  30
0.0
  11
216.487147
  21
144.96571
  31
0.0
   0
LINE
   5
3A6
100
AcDbEntity
   8
MAIN
   6
CONTINUOUS
  62
      5
100
AcDbLine
  10
217.487147
  20
146.39072
  30
0.0
  11
217.487147
  21
144.96571
  31
0.0
   0
LINE
   5
3A7
100
AcDbEntity
   8
MAIN
   6
CONTINUOUS
  62
      5
100
AcDbLine
  10
216.362147
  20
145.21571
  30
0.0
  11
216.487147
  21
145.21571
  31
0.0
   0
LINE
   5
3A8
100
AcDbEntity
   8
MAIN
   6
CONTINUOUS
  62
      5
100
AcDbLine
  10
217.487147
  20
145.21571
  30
0.0
  11
217.612147
  21
145.21571
  31
0.0
   0
LINE
   5
3AA
100
AcDbEntity
   8
MAIN
  62
      5
100
AcDbLine
  10
216.575537
  20
145.3041
  30
0.0
  11
216.398757
  21
145.12732
  31
0.0
   0
LINE
   5
3AB
100
AcDbEntity
   8
MAIN
  62
      5
100
AcDbLine
  10
217.398757
  20
145.12732
  30
0.0
  11
217.575537
  21
145.3041
  31
0.0
   0
LINE
   5
3A9
100
AcDbEntity
   8
MAIN
   6
CONTINUOUS
  62
      5
100
AcDbLine
  10
216.487147
  20
145.21571
  30
0.0
  11
217.487147
  21
145.21571
  31
0.0
   0
INSERT
   5
3AC
100
AcDbEntity
   8
MAIN
100
AcDbBlockReference
   2
*G41
  10
206.879887
  20
145.25827
  30
0.0
   0
SOLID
   5
3AE
100
AcDbEntity
   8
MAIN
  62
      5
100
AcDbTrace
  10
218.743137
  20
148.9452
  30
0.0
  11
218.814477
  21
149.19399
  31
0.0
  12
218.929317
  22
149.12499
  32
0.0
  13
218.929317
  23
149.12499
  33
0.0
   0
LINE
   5
3AD
100
AcDbEntity
   8
MAIN
   6
CONTINUOUS
  62
      5
100
AcDbLine
  10
218.743137
  20
148.9452
  30
0.0
  11
220.275267
  21
151.51571
  31
0.0
   0
LINE
   5
3AF
100
AcDbEntity
   8
MAIN
   6
CONTINUOUS
  62
      5
100
AcDbLine
  10
220.275267
  20
151.51571
  30
0.0
  11
220.775267
  21
151.51571
  31
0.0
   0
INSERT
   5
3B0
100
AcDbEntity
   8
MAIN
100
AcDbBlockReference
   2
*G42
  10
206.879887
  20
145.25827
  30
0.0
   0
SOLID
   5
3B2
100
AcDbEntity
   8
MAIN
  62
      5
100
AcDbTrace
  10
226.689137
  20
149.238
  30
0.0
  11
226.693657
  21
149.49678
  31
0.0
  12
226.822437
  22
149.45985
  32
0.0
  13
226.822437
  23
149.45985
  33
0.0
   0
LINE
   5
3B1
100
AcDbEntity
   8
MAIN
   6
CONTINUOUS
  62
      5
100
AcDbLine
  10
226.689137
  20
149.238
  30
0.0
  11
228.276947
  21
154.91572
  31
0.0
   0
LINE
   5
3B3
100
AcDbEntity
   8
MAIN
   6
CONTINUOUS
  62
      5
100
AcDbLine
  10
228.276947
  20
154.91572
  30
0.0
  11
228.776947
  21
154.91572
  31
0.0
   0
INSERT
   5
3B4
100
AcDbEntity
   8
MAIN
100
AcDbBlockReference
   2
*G43
  10
206.879887
  20
145.25827
  30
0.0
   0
SOLID
   5
3B6
100
AcDbEntity
   8
MAIN
  62
      5
100
AcDbTrace
  10
230.367487
  20
149.00119
  30
0.0
  11
230.245977
  21
149.22971
  31
0.0
  12
230.376517
  22
149.25985
  32
0.0
  13
230.376517
  23
149.25985
  33
0.0
   0
LINE
   5
3B5
100
AcDbEntity
   8
MAIN
   6
CONTINUOUS
  62
      5
100
AcDbLine
  10
230.367487
  20
149.00119
  30
0.0
  11
229.760087
  21
151.46572
  31
0.0
   0
LINE
   5
3B7
100
AcDbEntity
   8
MAIN
   6
CONTINUOUS
  62
      5
100
AcDbLine
  10
229.760087
  20
151.46572
  30
0.0
  11
230.260087
  21
151.46572
  31
0.0
   0
INSERT
   5
3B8
100
AcDbEntity
   8
MAIN
100
AcDbBlockReference
   2
*G44
  10
206.879887
  20
145.25827
  30
0.0
   0
LINE
   5
3B9
100
AcDbEntity
   8
MAIN
   6
CONTINUOUS
  62
      5
100
AcDbLine
  10
231.362147
  20
148.51571
  30
0.0
  11
234.676917
  21
148.51571
  31
0.0
   0
LINE
   5
3BA
100
AcDbEntity
   8
MAIN
   6
CONTINUOUS
  62
      5
100
AcDbLine
  10
231.612127
  20
146.51572
  30
0.0
  11
234.676917
  21
146.51572
  31
0.0
   0
LINE
   5
3BB
100
AcDbEntity
   8
MAIN
   6
CONTINUOUS
  62
      5
100
AcDbLine
  10
234.426917
  20
148.64071
  30
0.0
  11
234.426917
  21
148.51571
  31
0.0
   0
LINE
   5
3BC
100
AcDbEntity
   8
MAIN
   6
CONTINUOUS
  62
      5
100
AcDbLine
  10
234.426917
  20
146.51572
  30
0.0
  11
234.426917
  21
146.39072
  31
0.0
   0
LINE
   5
3BE
100
AcDbEntity
   8
MAIN
  62
      5
100
AcDbLine
  10
234.515307
  20
148.42732
  30
0.0
  11
234.338527
  21
148.6041
  31
0.0
   0
LINE
   5
3BF
100
AcDbEntity
   8
MAIN
  62
      5
100
AcDbLine
  10
234.338527
  20
146.60411
  30
0.0
  11
234.515307
  21
146.42733
  31
0.0
   0
LINE
   5
3BD
100
AcDbEntity
   8
MAIN
   6
CONTINUOUS
  62
      5
100
AcDbLine
  10
234.426917
  20
148.51571
  30
0.0
  11
234.426917
  21
146.51572
  31
0.0
   0
INSERT
   5
3C0
100
AcDbEntity
   8
MAIN
100
AcDbBlockReference
   2
*G45
  10
206.879887
  20
145.25827
  30
0.0
   0
LINE
   5
3C1
100
AcDbEntity
   8
MAIN
   6
CONTINUOUS
  62
      5
100
AcDbLine
  10
232.487127
  20
147.39072
  30
0.0
  11
232.487127
  21
144.16571
  31
0.0
   0
LINE
   5
3C2
100
AcDbEntity
   8
MAIN
   6
CONTINUOUS
  62
      5
100
AcDbLine
  10
230.487137
  20
147.6407
  30
0.0
  11
230.487137
  21
144.16571
  31
0.0
   0
LINE
   5
3C3
100
AcDbEntity
   8
MAIN
   6
CONTINUOUS
  62
      5
100
AcDbLine
  10
232.612127
  20
144.41571
  30
0.0
  11
232.487127
  21
144.41571
  31
0.0
   0
LINE
   5
3C4
100
AcDbEntity
   8
MAIN
   6
CONTINUOUS
  62
      5
100
AcDbLine
  10
230.487137
  20
144.41571
  30
0.0
  11
230.362137
  21
144.41571
  31
0.0
   0
LINE
   5
3C6
100
AcDbEntity
   8
MAIN
  62
      5
100
AcDbLine
  10
232.398737
  20
144.32732
  30
0.0
  11
232.575517
  21
144.5041
  31
0.0
   0
LINE
   5
3C7
100
AcDbEntity
   8
MAIN
  62
      5
100
AcDbLine
  10
230.575527
  20
144.5041
  30
0.0
  11
230.398747
  21
144.32732
  31
0.0
   0
LINE
   5
3C5
100
AcDbEntity
   8
MAIN
   6
CONTINUOUS
  62
      5
100
AcDbLine
  10
232.487127
  20
144.41571
  30
0.0
  11
230.487137
  21
144.41571
  31
0.0
   0
INSERT
   5
3C8
100
AcDbEntity
   8
MAIN
100
AcDbBlockReference
   2
*G46
  10
206.879887
  20
145.25827
  30
0.0
   0
LINE
   5
3C9
100
AcDbEntity
   8
MAIN
   6
CONTINUOUS
  62
      5
100
AcDbLine
  10
230.487137
  20
147.6407
  30
0.0
  11
230.487137
  21
142.66571
  31
0.0
   0
LINE
   5
3CA
100
AcDbEntity
   8
MAIN
   6
CONTINUOUS
  62
      5
100
AcDbLine
  10
226.487147
  20
147.39073
  30
0.0
  11
226.487147
  21
142.66571
  31
0.0
   0
LINE
   5
3CB
100
AcDbEntity
   8
MAIN
   6
CONTINUOUS
  62
      5
100
AcDbLine
  10
230.612137
  20
142.91571
  30
0.0
  11
230.487137
  21
142.91571
  31
0.0
   0
LINE
   5
3CC
100
AcDbEntity
   8
MAIN
   6
CONTINUOUS
  62
      5
100
AcDbLine
  10
226.487147
  20
142.91571
  30
0.0
  11
226.362147
  21
142.91571
  31
0.0
   0
LINE
   5
3CE
100
AcDbEntity
   8
MAIN
  62
      5
100
AcDbLine
  10
230.398747
  20
142.82732
  30
0.0
  11
230.575527
  21
143.0041
  31
0.0
   0
LINE
   5
3CF
100
AcDbEntity
   8
MAIN
  62
      5
100
AcDbLine
  10
226.575537
  20
143.0041
  30
0.0
  11
226.398757
  21
142.82732
  31
0.0
   0
LINE
   5
3CD
100
AcDbEntity
   8
MAIN
   6
CONTINUOUS
  62
      5
100
AcDbLine
  10
230.487137
  20
142.91571
  30
0.0
  11
226.487147
  21
142.91571
  31
0.0
   0
INSERT
   5
3D0
100
AcDbEntity
   8
MAIN
100
AcDbBlockReference
   2
*G47
  10
206.879887
  20
145.25827
  30
0.0
   0
LINE
   5
3D1
100
AcDbEntity
   8
MAIN
   6
CONTINUOUS
  62
      5
100
AcDbLine
  10
226.487147
  20
147.26573
  30
0.0
  11
226.487147
  21
144.12213
  31
0.0
   0
LINE
   5
3D2
100
AcDbEntity
   8
MAIN
   6
CONTINUOUS
  62
      5
100
AcDbLine
  10
218.487147
  20
147.64072
  30
0.0
  11
218.487147
  21
144.12213
  31
0.0
   0
LINE
   5
3D3
100
AcDbEntity
   8
MAIN
   6
CONTINUOUS
  62
      5
100
AcDbLine
  10
226.612147
  20
144.37213
  30
0.0
  11
226.487147
  21
144.37213
  31
0.0
   0
LINE
   5
3D4
100
AcDbEntity
   8
MAIN
   6
CONTINUOUS
  62
      5
100
AcDbLine
  10
218.487147
  20
144.37213
  30
0.0
  11
218.362147
  21
144.37213
  31
0.0
   0
LINE
   5
3D6
100
AcDbEntity
   8
MAIN
  62
      5
100
AcDbLine
  10
226.398757
  20
144.28374
  30
0.0
  11
226.575537
  21
144.46052
  31
0.0
   0
LINE
   5
3D7
100
AcDbEntity
   8
MAIN
  62
      5
100
AcDbLine
  10
218.575537
  20
144.46052
  30
0.0
  11
218.398757
  21
144.28374
  31
0.0
   0
LINE
   5
3D5
100
AcDbEntity
   8
MAIN
   6
CONTINUOUS
  62
      5
100
AcDbLine
  10
226.487147
  20
144.37213
  30
0.0
  11
218.487147
  21
144.37213
  31
0.0
   0
INSERT
   5
3D8
100
AcDbEntity
   8
MAIN
100
AcDbBlockReference
   2
*G48
  10
206.879887
  20
145.25827
  30
0.0
   0
TEXT
   5
3D9
100
AcDbEntity
   8
MAIN
  62
      7
100
AcDbText
  10
182.000037
  20
160.58645
  30
0.0
  40
0.8
   1
Top Plate  : 1" thick  6061 Aluminum plate
  41
0.6
  11
182.000037
  21
160.58645
  31
0.0
100
AcDbText
  73
      3
   0
LWPOLYLINE
   5
3DA
100
AcDbEntity
   8
MAIN
   6
CONTINUOUS
  62
      7
100
AcDbPolyline
  90
         5
  70
    129
  10
216.481077
  20
133.21571
  10
232.481077
  20
133.21571
  10
232.481077
  20
132.21571
  10
216.481077
  20
132.21571
  10
216.481077
  20
133.21571
   0
LWPOLYLINE
   5
3DB
100
AcDbEntity
   8
MAIN
   6
CONTINUOUS
  62
      7
100
AcDbPolyline
  90
         5
  70
    129
  10
217.987147
  20
133.21571
  10
218.987147
  20
133.21571
  10
218.987147
  20
132.21571
  10
217.987147
  20
132.21571
  10
217.987147
  20
133.21571
   0
LWPOLYLINE
   5
3DC
100
AcDbEntity
   8
MAIN
   6
CONTINUOUS
  62
      7
100
AcDbPolyline
  90
         5
  70
    129
  10
229.987137
  20
133.21571
  10
230.987137
  20
133.21571
  10
230.987137
  20
132.21571
  10
229.987137
  20
132.21571
  10
229.987137
  20
133.21571
   0
LWPOLYLINE
   5
3DD
100
AcDbEntity
   8
MAIN
   6
CONTINUOUS
  62
      7
100
AcDbPolyline
  90
         5
  70
    129
  10
225.737147
  20
140.96571
  10
227.237147
  20
140.96571
  10
227.237147
  20
131.96571
  10
225.737147
  20
131.96571
  10
225.737147
  20
140.96571
   0
POLYLINE
   5
3DE
100
AcDbEntity
   8
MAIN
   6
CONTINUOUS
  62
      7
100
AcDb2dPolyline
  66
      1
  10
0.0
  20
0.0
  30
0.0
  75
      5
   0
VERTEX
   5
3DF
100
AcDbEntity
   8
MAIN
   6
CONTINUOUS
  62
      7
100
AcDbVertex
100
AcDb2dVertex
  10
229.987137
  20
132.09071
  30
0.0
   0
VERTEX
   5
3E0
100
AcDbEntity
   8
MAIN
   6
CONTINUOUS
  62
      7
100
AcDbVertex
100
AcDb2dVertex
  10
230.187137
  20
131.96571
  30
0.0
   0
VERTEX
   5
3E1
100
AcDbEntity
   8
MAIN
   6
CONTINUOUS
  62
      7
100
AcDbVertex
100
AcDb2dVertex
  10
230.787137
  20
131.96571
  30
0.0
   0
VERTEX
   5
3E2
100
AcDbEntity
   8
MAIN
   6
CONTINUOUS
  62
      7
100
AcDbVertex
100
AcDb2dVertex
  10
230.933007
  20
132.05946
  30
0.0
   0
VERTEX
   5
3E3
100
AcDbEntity
   8
MAIN
   6
CONTINUOUS
  62
      7
100
AcDbVertex
100
AcDb2dVertex
  10
230.878877
  20
132.09071
  30
0.0
   0
SEQEND
   5
3E4
100
AcDbEntity
   8
MAIN
   6
CONTINUOUS
   0
POLYLINE
   5
3E5
100
AcDbEntity
   8
MAIN
   6
CONTINUOUS
  62
      7
100
AcDb2dPolyline
  66
      1
  10
0.0
  20
0.0
  30
0.0
  75
      5
   0
VERTEX
   5
3E6
100
AcDbEntity
   8
MAIN
   6
CONTINUOUS
  62
      7
100
AcDbVertex
100
AcDb2dVertex
  10
230.987137
  20
135.65321
  30
0.0
   0
VERTEX
   5
3E7
100
AcDbEntity
   8
MAIN
   6
CONTINUOUS
  62
      7
100
AcDbVertex
100
AcDb2dVertex
  10
230.878887
  20
135.71571
  30
0.0
   0
VERTEX
   5
3E8
100
AcDbEntity
   8
MAIN
   6
CONTINUOUS
  62
      7
100
AcDbVertex
100
AcDb2dVertex
  10
230.095397
  20
135.71571
  30
0.0
   0
VERTEX
   5
3E9
100
AcDbEntity
   8
MAIN
   6
CONTINUOUS
  62
      7
100
AcDbVertex
100
AcDb2dVertex
  10
230.041267
  20
135.68446
  30
0.0
   0
VERTEX
   5
3EA
100
AcDbEntity
   8
MAIN
   6
CONTINUOUS
  62
      7
100
AcDbVertex
100
AcDb2dVertex
  10
230.095397
  20
135.65321
  30
0.0
   0
SEQEND
   5
3EB
100
AcDbEntity
   8
MAIN
   6
CONTINUOUS
   0
POLYLINE
   5
3EC
100
AcDbEntity
   8
MAIN
   6
CONTINUOUS
  62
      7
100
AcDb2dPolyline
  66
      1
  10
0.0
  20
0.0
  30
0.0
  70
      1
  75
      5
   0
VERTEX
   5
3ED
100
AcDbEntity
   8
MAIN
   6
CONTINUOUS
  62
      7
100
AcDbVertex
100
AcDb2dVertex
  10
230.933007
  20
132.05946
  30
0.0
   0
VERTEX
   5
3EE
100
AcDbEntity
   8
MAIN
   6
CONTINUOUS
  62
      7
100
AcDbVertex
100
AcDb2dVertex
  10
230.487137
  20
132.05946
  30
0.0
   0
VERTEX
   5
3EF
100
AcDbEntity
   8
MAIN
   6
CONTINUOUS
  62
      7
100
AcDbVertex
100
AcDb2dVertex
  10
230.878887
  20
132.09071
  30
0.0
   0
VERTEX
   5
3F0
100
AcDbEntity
   8
MAIN
   6
CONTINUOUS
  62
      7
100
AcDbVertex
100
AcDb2dVertex
  10
230.933017
  20
132.05946
  30
0.0
   0
SEQEND
   5
3F1
100
AcDbEntity
   8
MAIN
   6
CONTINUOUS
   0
POLYLINE
   5
3F2
100
AcDbEntity
   8
MAIN
   6
CONTINUOUS
  62
      7
100
AcDb2dPolyline
  66
      1
  10
0.0
  20
0.0
  30
0.0
  75
      5
   0
VERTEX
   5
3F3
100
AcDbEntity
   8
MAIN
   6
CONTINUOUS
  62
      7
100
AcDbVertex
100
AcDb2dVertex
  10
230.878887
  20
132.09071
  30
0.0
   0
VERTEX
   5
3F4
100
AcDbEntity
   8
MAIN
   6
CONTINUOUS
  62
      7
100
AcDbVertex
100
AcDb2dVertex
  10
230.987137
  20
132.15321
  30
0.0
   0
VERTEX
   5
3F5
100
AcDbEntity
   8
MAIN
   6
CONTINUOUS
  62
      7
100
AcDbVertex
100
AcDb2dVertex
  10
229.987137
  20
132.09071
  30
0.0
   0
SEQEND
   5
3F6
100
AcDbEntity
   8
MAIN
   6
CONTINUOUS
   0
POLYLINE
   5
3F7
100
AcDbEntity
   8
MAIN
   6
CONTINUOUS
  62
      7
100
AcDb2dPolyline
  66
      1
  10
0.0
  20
0.0
  30
0.0
  70
      1
  75
      5
   0
VERTEX
   5
3F8
100
AcDbEntity
   8
MAIN
   6
CONTINUOUS
  62
      7
100
AcDbVertex
100
AcDb2dVertex
  10
229.987137
  20
132.09071
  30
0.0
   0
VERTEX
   5
3F9
100
AcDbEntity
   8
MAIN
   6
CONTINUOUS
  62
      7
100
AcDbVertex
100
AcDb2dVertex
  10
230.095387
  20
132.15321
  30
0.0
   0
VERTEX
   5
3FA
100
AcDbEntity
   8
MAIN
   6
CONTINUOUS
  62
      7
100
AcDbVertex
100
AcDb2dVertex
  10
230.878877
  20
132.21571
  30
0.0
   0
VERTEX
   5
3FB
100
AcDbEntity
   8
MAIN
   6
CONTINUOUS
  62
      7
100
AcDbVertex
100
AcDb2dVertex
  10
230.987127
  20
132.15321
  30
0.0
   0
SEQEND
   5
3FC
100
AcDbEntity
   8
MAIN
   6
CONTINUOUS
   0
POLYLINE
   5
3FD
100
AcDbEntity
   8
MAIN
   6
CONTINUOUS
  62
      7
100
AcDb2dPolyline
  66
      1
  10
0.0
  20
0.0
  30
0.0
  70
      1
  75
      5
   0
VERTEX
   5
3FE
100
AcDbEntity
   8
MAIN
   6
CONTINUOUS
  62
      7
100
AcDbVertex
100
AcDb2dVertex
  10
230.878877
  20
132.21571
  30
0.0
   0
VERTEX
   5
3FF
100
AcDbEntity
   8
MAIN
   6
CONTINUOUS
  62
      7
100
AcDbVertex
100
AcDb2dVertex
  10
230.987127
  20
132.27821
  30
0.0
   0
VERTEX
   5
400
100
AcDbEntity
   8
MAIN
   6
CONTINUOUS
  62
      7
100
AcDbVertex
100
AcDb2dVertex
  10
229.987127
  20
132.21571
  30
0.0
   0
VERTEX
   5
401
100
AcDbEntity
   8
MAIN
   6
CONTINUOUS
  62
      7
100
AcDbVertex
100
AcDb2dVertex
  10
230.095377
  20
132.15321
  30
0.0
   0
SEQEND
   5
402
100
AcDbEntity
   8
MAIN
   6
CONTINUOUS
   0
POLYLINE
   5
403
100
AcDbEntity
   8
MAIN
   6
CONTINUOUS
  62
      7
100
AcDb2dPolyline
  66
      1
  10
0.0
  20
0.0
  30
0.0
  70
      1
  75
      5
   0
VERTEX
   5
404
100
AcDbEntity
   8
MAIN
   6
CONTINUOUS
  62
      7
100
AcDbVertex
100
AcDb2dVertex
  10
229.987127
  20
132.21571
  30
0.0
   0
VERTEX
   5
405
100
AcDbEntity
   8
MAIN
   6
CONTINUOUS
  62
      7
100
AcDbVertex
100
AcDb2dVertex
  10
230.095377
  20
132.27821
  30
0.0
   0
VERTEX
   5
406
100
AcDbEntity
   8
MAIN
   6
CONTINUOUS
  62
      7
100
AcDbVertex
100
AcDb2dVertex
  10
230.878867
  20
132.34071
  30
0.0
   0
VERTEX
   5
407
100
AcDbEntity
   8
MAIN
   6
CONTINUOUS
  62
      7
100
AcDbVertex
100
AcDb2dVertex
  10
230.987117
  20
132.27821
  30
0.0
   0
SEQEND
   5
408
100
AcDbEntity
   8
MAIN
   6
CONTINUOUS
   0
POLYLINE
   5
409
100
AcDbEntity
   8
MAIN
   6
CONTINUOUS
  62
      7
100
AcDb2dPolyline
  66
      1
  10
0.0
  20
0.0
  30
0.0
  70
      1
  75
      5
   0
VERTEX
   5
40A
100
AcDbEntity
   8
MAIN
   6
CONTINUOUS
  62
      7
100
AcDbVertex
100
AcDb2dVertex
  10
230.878867
  20
132.34071
  30
0.0
   0
VERTEX
   5
40B
100
AcDbEntity
   8
MAIN
   6
CONTINUOUS
  62
      7
100
AcDbVertex
100
AcDb2dVertex
  10
230.987117
  20
132.40321
  30
0.0
   0
VERTEX
   5
40C
100
AcDbEntity
   8
MAIN
   6
CONTINUOUS
  62
      7
100
AcDbVertex
100
AcDb2dVertex
  10
229.987117
  20
132.34071
  30
0.0
   0
VERTEX
   5
40D
100
AcDbEntity
   8
MAIN
   6
CONTINUOUS
  62
      7
100
AcDbVertex
100
AcDb2dVertex
  10
230.095367
  20
132.27821
  30
0.0
   0
SEQEND
   5
40E
100
AcDbEntity
   8
MAIN
   6
CONTINUOUS
   0
POLYLINE
   5
40F
100
AcDbEntity
   8
MAIN
   6
CONTINUOUS
  62
      7
100
AcDb2dPolyline
  66
      1
  10
0.0
  20
0.0
  30
0.0
  70
      1
  75
      5
   0
VERTEX
   5
410
100
AcDbEntity
   8
MAIN
   6
CONTINUOUS
  62
      7
100
AcDbVertex
100
AcDb2dVertex
  10
229.987117
  20
132.34071
  30
0.0
   0
VERTEX
   5
411
100
AcDbEntity
   8
MAIN
   6
CONTINUOUS
  62
      7
100
AcDbVertex
100
AcDb2dVertex
  10
230.095367
  20
132.40321
  30
0.0
   0
VERTEX
   5
412
100
AcDbEntity
   8
MAIN
   6
CONTINUOUS
  62
      7
100
AcDbVertex
100
AcDb2dVertex
  10
230.878857
  20
132.46571
  30
0.0
   0
VERTEX
   5
413
100
AcDbEntity
   8
MAIN
   6
CONTINUOUS
  62
      7
100
AcDbVertex
100
AcDb2dVertex
  10
230.987107
  20
132.40321
  30
0.0
   0
SEQEND
   5
414
100
AcDbEntity
   8
MAIN
   6
CONTINUOUS
   0
POLYLINE
   5
415
100
AcDbEntity
   8
MAIN
   6
CONTINUOUS
  62
      7
100
AcDb2dPolyline
  66
      1
  10
0.0
  20
0.0
  30
0.0
  70
      1
  75
      5
   0
VERTEX
   5
416
100
AcDbEntity
   8
MAIN
   6
CONTINUOUS
  62
      7
100
AcDbVertex
100
AcDb2dVertex
  10
230.878857
  20
132.46571
  30
0.0
   0
VERTEX
   5
417
100
AcDbEntity
   8
MAIN
   6
CONTINUOUS
  62
      7
100
AcDbVertex
100
AcDb2dVertex
  10
230.987107
  20
132.52821
  30
0.0
   0
VERTEX
   5
418
100
AcDbEntity
   8
MAIN
   6
CONTINUOUS
  62
      7
100
AcDbVertex
100
AcDb2dVertex
  10
229.987107
  20
132.46571
  30
0.0
   0
VERTEX
   5
419
100
AcDbEntity
   8
MAIN
   6
CONTINUOUS
  62
      7
100
AcDbVertex
100
AcDb2dVertex
  10
230.095357
  20
132.40321
  30
0.0
   0
SEQEND
   5
41A
100
AcDbEntity
   8
MAIN
   6
CONTINUOUS
   0
POLYLINE
   5
41B
100
AcDbEntity
   8
MAIN
   6
CONTINUOUS
  62
      7
100
AcDb2dPolyline
  66
      1
  10
0.0
  20
0.0
  30
0.0
  70
      1
  75
      5
   0
VERTEX
   5
41C
100
AcDbEntity
   8
MAIN
   6
CONTINUOUS
  62
      7
100
AcDbVertex
100
AcDb2dVertex
  10
229.987107
  20
132.46571
  30
0.0
   0
VERTEX
   5
41D
100
AcDbEntity
   8
MAIN
   6
CONTINUOUS
  62
      7
100
AcDbVertex
100
AcDb2dVertex
  10
230.095357
  20
132.52821
  30
0.0
   0
VERTEX
   5
41E
100
AcDbEntity
   8
MAIN
   6
CONTINUOUS
  62
      7
100
AcDbVertex
100
AcDb2dVertex
  10
230.878847
  20
132.59071
  30
0.0
   0
VERTEX
   5
41F
100
AcDbEntity
   8
MAIN
   6
CONTINUOUS
  62
      7
100
AcDbVertex
100
AcDb2dVertex
  10
230.987097
  20
132.52821
  30
0.0
   0
SEQEND
   5
420
100
AcDbEntity
   8
MAIN
   6
CONTINUOUS
   0
POLYLINE
   5
421
100
AcDbEntity
   8
MAIN
   6
CONTINUOUS
  62
      7
100
AcDb2dPolyline
  66
      1
  10
0.0
  20
0.0
  30
0.0
  70
      1
  75
      5
   0
VERTEX
   5
422
100
AcDbEntity
   8
MAIN
   6
CONTINUOUS
  62
      7
100
AcDbVertex
100
AcDb2dVertex
  10
230.878847
  20
132.59071
  30
0.0
   0
VERTEX
   5
423
100
AcDbEntity
   8
MAIN
   6
CONTINUOUS
  62
      7
100
AcDbVertex
100
AcDb2dVertex
  10
230.987097
  20
132.65321
  30
0.0
   0
VERTEX
   5
424
100
AcDbEntity
   8
MAIN
   6
CONTINUOUS
  62
      7
100
AcDbVertex
100
AcDb2dVertex
  10
229.987097
  20
132.59071
  30
0.0
   0
VERTEX
   5
425
100
AcDbEntity
   8
MAIN
   6
CONTINUOUS
  62
      7
100
AcDbVertex
100
AcDb2dVertex
  10
230.095347
  20
132.52821
  30
0.0
   0
SEQEND
   5
426
100
AcDbEntity
   8
MAIN
   6
CONTINUOUS
   0
POLYLINE
   5
427
100
AcDbEntity
   8
MAIN
   6
CONTINUOUS
  62
      7
100
AcDb2dPolyline
  66
      1
  10
0.0
  20
0.0
  30
0.0
  70
      1
  75
      5
   0
VERTEX
   5
428
100
AcDbEntity
   8
MAIN
   6
CONTINUOUS
  62
      7
100
AcDbVertex
100
AcDb2dVertex
  10
229.987097
  20
132.59071
  30
0.0
   0
VERTEX
   5
429
100
AcDbEntity
   8
MAIN
   6
CONTINUOUS
  62
      7
100
AcDbVertex
100
AcDb2dVertex
  10
230.095347
  20
132.65321
  30
0.0
   0
VERTEX
   5
42A
100
AcDbEntity
   8
MAIN
   6
CONTINUOUS
  62
      7
100
AcDbVertex
100
AcDb2dVertex
  10
230.878837
  20
132.71571
  30
0.0
   0
VERTEX
   5
42B
100
AcDbEntity
   8
MAIN
   6
CONTINUOUS
  62
      7
100
AcDbVertex
100
AcDb2dVertex
  10
230.987087
  20
132.65321
  30
0.0
   0
SEQEND
   5
42C
100
AcDbEntity
   8
MAIN
   6
CONTINUOUS
   0
POLYLINE
   5
42D
100
AcDbEntity
   8
MAIN
   6
CONTINUOUS
  62
      7
100
AcDb2dPolyline
  66
      1
  10
0.0
  20
0.0
  30
0.0
  70
      1
  75
      5
   0
VERTEX
   5
42E
100
AcDbEntity
   8
MAIN
   6
CONTINUOUS
  62
      7
100
AcDbVertex
100
AcDb2dVertex
  10
230.878837
  20
132.71571
  30
0.0
   0
VERTEX
   5
42F
100
AcDbEntity
   8
MAIN
   6
CONTINUOUS
  62
      7
100
AcDbVertex
100
AcDb2dVertex
  10
230.987087
  20
132.77821
  30
0.0
   0
VERTEX
   5
430
100
AcDbEntity
   8
MAIN
   6
CONTINUOUS
  62
      7
100
AcDbVertex
100
AcDb2dVertex
  10
229.987087
  20
132.71571
  30
0.0
   0
VERTEX
   5
431
100
AcDbEntity
   8
MAIN
   6
CONTINUOUS
  62
      7
100
AcDbVertex
100
AcDb2dVertex
  10
230.095337
  20
132.65321
  30
0.0
   0
SEQEND
   5
432
100
AcDbEntity
   8
MAIN
   6
CONTINUOUS
   0
POLYLINE
   5
433
100
AcDbEntity
   8
MAIN
   6
CONTINUOUS
  62
      7
100
AcDb2dPolyline
  66
      1
  10
0.0
  20
0.0
  30
0.0
  70
      1
  75
      5
   0
VERTEX
   5
434
100
AcDbEntity
   8
MAIN
   6
CONTINUOUS
  62
      7
100
AcDbVertex
100
AcDb2dVertex
  10
229.987087
  20
132.71571
  30
0.0
   0
VERTEX
   5
435
100
AcDbEntity
   8
MAIN
   6
CONTINUOUS
  62
      7
100
AcDbVertex
100
AcDb2dVertex
  10
230.095337
  20
132.77821
  30
0.0
   0
VERTEX
   5
436
100
AcDbEntity
   8
MAIN
   6
CONTINUOUS
  62
      7
100
AcDbVertex
100
AcDb2dVertex
  10
230.878827
  20
132.84071
  30
0.0
   0
VERTEX
   5
437
100
AcDbEntity
   8
MAIN
   6
CONTINUOUS
  62
      7
100
AcDbVertex
100
AcDb2dVertex
  10
230.987077
  20
132.77821
  30
0.0
   0
SEQEND
   5
438
100
AcDbEntity
   8
MAIN
   6
CONTINUOUS
   0
POLYLINE
   5
439
100
AcDbEntity
   8
MAIN
   6
CONTINUOUS
  62
      7
100
AcDb2dPolyline
  66
      1
  10
0.0
  20
0.0
  30
0.0
  70
      1
  75
      5
   0
VERTEX
   5
43A
100
AcDbEntity
   8
MAIN
   6
CONTINUOUS
  62
      7
100
AcDbVertex
100
AcDb2dVertex
  10
230.878827
  20
132.84071
  30
0.0
   0
VERTEX
   5
43B
100
AcDbEntity
   8
MAIN
   6
CONTINUOUS
  62
      7
100
AcDbVertex
100
AcDb2dVertex
  10
230.987077
  20
132.90321
  30
0.0
   0
VERTEX
   5
43C
100
AcDbEntity
   8
MAIN
   6
CONTINUOUS
  62
      7
100
AcDbVertex
100
AcDb2dVertex
  10
229.987077
  20
132.84071
  30
0.0
   0
VERTEX
   5
43D
100
AcDbEntity
   8
MAIN
   6
CONTINUOUS
  62
      7
100
AcDbVertex
100
AcDb2dVertex
  10
230.095327
  20
132.77821
  30
0.0
   0
SEQEND
   5
43E
100
AcDbEntity
   8
MAIN
   6
CONTINUOUS
   0
POLYLINE
   5
43F
100
AcDbEntity
   8
MAIN
   6
CONTINUOUS
  62
      7
100
AcDb2dPolyline
  66
      1
  10
0.0
  20
0.0
  30
0.0
  70
      1
  75
      5
   0
VERTEX
   5
440
100
AcDbEntity
   8
MAIN
   6
CONTINUOUS
  62
      7
100
AcDbVertex
100
AcDb2dVertex
  10
229.987077
  20
132.84071
  30
0.0
   0
VERTEX
   5
441
100
AcDbEntity
   8
MAIN
   6
CONTINUOUS
  62
      7
100
AcDbVertex
100
AcDb2dVertex
  10
230.095327
  20
132.90321
  30
0.0
   0
VERTEX
   5
442
100
AcDbEntity
   8
MAIN
   6
CONTINUOUS
  62
      7
100
AcDbVertex
100
AcDb2dVertex
  10
230.878817
  20
132.96571
  30
0.0
   0
VERTEX
   5
443
100
AcDbEntity
   8
MAIN
   6
CONTINUOUS
  62
      7
100
AcDbVertex
100
AcDb2dVertex
  10
230.987067
  20
132.90321
  30
0.0
   0
SEQEND
   5
444
100
AcDbEntity
   8
MAIN
   6
CONTINUOUS
   0
POLYLINE
   5
445
100
AcDbEntity
   8
MAIN
   6
CONTINUOUS
  62
      7
100
AcDb2dPolyline
  66
      1
  10
0.0
  20
0.0
  30
0.0
  70
      1
  75
      5
   0
VERTEX
   5
446
100
AcDbEntity
   8
MAIN
   6
CONTINUOUS
  62
      7
100
AcDbVertex
100
AcDb2dVertex
  10
230.878817
  20
132.96571
  30
0.0
   0
VERTEX
   5
447
100
AcDbEntity
   8
MAIN
   6
CONTINUOUS
  62
      7
100
AcDbVertex
100
AcDb2dVertex
  10
230.987067
  20
133.02821
  30
0.0
   0
VERTEX
   5
448
100
AcDbEntity
   8
MAIN
   6
CONTINUOUS
  62
      7
100
AcDbVertex
100
AcDb2dVertex
  10
229.987067
  20
132.96571
  30
0.0
   0
VERTEX
   5
449
100
AcDbEntity
   8
MAIN
   6
CONTINUOUS
  62
      7
100
AcDbVertex
100
AcDb2dVertex
  10
230.095317
  20
132.90321
  30
0.0
   0
SEQEND
   5
44A
100
AcDbEntity
   8
MAIN
   6
CONTINUOUS
   0
POLYLINE
   5
44B
100
AcDbEntity
   8
MAIN
   6
CONTINUOUS
  62
      7
100
AcDb2dPolyline
  66
      1
  10
0.0
  20
0.0
  30
0.0
  70
      1
  75
      5
   0
VERTEX
   5
44C
100
AcDbEntity
   8
MAIN
   6
CONTINUOUS
  62
      7
100
AcDbVertex
100
AcDb2dVertex
  10
229.987067
  20
132.96571
  30
0.0
   0
VERTEX
   5
44D
100
AcDbEntity
   8
MAIN
   6
CONTINUOUS
  62
      7
100
AcDbVertex
100
AcDb2dVertex
  10
230.095317
  20
133.02821
  30
0.0
   0
VERTEX
   5
44E
100
AcDbEntity
   8
MAIN
   6
CONTINUOUS
  62
      7
100
AcDbVertex
100
AcDb2dVertex
  10
230.878807
  20
133.09071
  30
0.0
   0
VERTEX
   5
44F
100
AcDbEntity
   8
MAIN
   6
CONTINUOUS
  62
      7
100
AcDbVertex
100
AcDb2dVertex
  10
230.987057
  20
133.02821
  30
0.0
   0
SEQEND
   5
450
100
AcDbEntity
   8
MAIN
   6
CONTINUOUS
   0
POLYLINE
   5
451
100
AcDbEntity
   8
MAIN
   6
CONTINUOUS
  62
      7
100
AcDb2dPolyline
  66
      1
  10
0.0
  20
0.0
  30
0.0
  70
      1
  75
      5
   0
VERTEX
   5
452
100
AcDbEntity
   8
MAIN
   6
CONTINUOUS
  62
      7
100
AcDbVertex
100
AcDb2dVertex
  10
230.878807
  20
133.09071
  30
0.0
   0
VERTEX
   5
453
100
AcDbEntity
   8
MAIN
   6
CONTINUOUS
  62
      7
100
AcDbVertex
100
AcDb2dVertex
  10
230.987057
  20
133.15321
  30
0.0
   0
VERTEX
   5
454
100
AcDbEntity
   8
MAIN
   6
CONTINUOUS
  62
      7
100
AcDbVertex
100
AcDb2dVertex
  10
229.987057
  20
133.09071
  30
0.0
   0
VERTEX
   5
455
100
AcDbEntity
   8
MAIN
   6
CONTINUOUS
  62
      7
100
AcDbVertex
100
AcDb2dVertex
  10
230.095307
  20
133.02821
  30
0.0
   0
SEQEND
   5
456
100
AcDbEntity
   8
MAIN
   6
CONTINUOUS
   0
POLYLINE
   5
457
100
AcDbEntity
   8
MAIN
   6
CONTINUOUS
  62
      7
100
AcDb2dPolyline
  66
      1
  10
0.0
  20
0.0
  30
0.0
  70
      1
  75
      5
   0
VERTEX
   5
458
100
AcDbEntity
   8
MAIN
   6
CONTINUOUS
  62
      7
100
AcDbVertex
100
AcDb2dVertex
  10
229.987057
  20
133.09071
  30
0.0
   0
VERTEX
   5
459
100
AcDbEntity
   8
MAIN
   6
CONTINUOUS
  62
      7
100
AcDbVertex
100
AcDb2dVertex
  10
230.095307
  20
133.15321
  30
0.0
   0
VERTEX
   5
45A
100
AcDbEntity
   8
MAIN
   6
CONTINUOUS
  62
      7
100
AcDbVertex
100
AcDb2dVertex
  10
230.878797
  20
133.21571
  30
0.0
   0
VERTEX
   5
45B
100
AcDbEntity
   8
MAIN
   6
CONTINUOUS
  62
      7
100
AcDbVertex
100
AcDb2dVertex
  10
230.987047
  20
133.15321
  30
0.0
   0
SEQEND
   5
45C
100
AcDbEntity
   8
MAIN
   6
CONTINUOUS
   0
POLYLINE
   5
45D
100
AcDbEntity
   8
MAIN
   6
CONTINUOUS
  62
      7
100
AcDb2dPolyline
  66
      1
  10
0.0
  20
0.0
  30
0.0
  70
      1
  75
      5
   0
VERTEX
   5
45E
100
AcDbEntity
   8
MAIN
   6
CONTINUOUS
  62
      7
100
AcDbVertex
100
AcDb2dVertex
  10
230.878797
  20
133.21571
  30
0.0
   0
VERTEX
   5
45F
100
AcDbEntity
   8
MAIN
   6
CONTINUOUS
  62
      7
100
AcDbVertex
100
AcDb2dVertex
  10
230.987047
  20
133.27821
  30
0.0
   0
VERTEX
   5
460
100
AcDbEntity
   8
MAIN
   6
CONTINUOUS
  62
      7
100
AcDbVertex
100
AcDb2dVertex
  10
229.987047
  20
133.21571
  30
0.0
   0
VERTEX
   5
461
100
AcDbEntity
   8
MAIN
   6
CONTINUOUS
  62
      7
100
AcDbVertex
100
AcDb2dVertex
  10
230.095297
  20
133.15321
  30
0.0
   0
SEQEND
   5
462
100
AcDbEntity
   8
MAIN
   6
CONTINUOUS
   0
POLYLINE
   5
463
100
AcDbEntity
   8
MAIN
   6
CONTINUOUS
  62
      7
100
AcDb2dPolyline
  66
      1
  10
0.0
  20
0.0
  30
0.0
  70
      1
  75
      5
   0
VERTEX
   5
464
100
AcDbEntity
   8
MAIN
   6
CONTINUOUS
  62
      7
100
AcDbVertex
100
AcDb2dVertex
  10
229.987047
  20
133.21571
  30
0.0
   0
VERTEX
   5
465
100
AcDbEntity
   8
MAIN
   6
CONTINUOUS
  62
      7
100
AcDbVertex
100
AcDb2dVertex
  10
230.095297
  20
133.27821
  30
0.0
   0
VERTEX
   5
466
100
AcDbEntity
   8
MAIN
   6
CONTINUOUS
  62
      7
100
AcDbVertex
100
AcDb2dVertex
  10
230.878787
  20
133.34071
  30
0.0
   0
VERTEX
   5
467
100
AcDbEntity
   8
MAIN
   6
CONTINUOUS
  62
      7
100
AcDbVertex
100
AcDb2dVertex
  10
230.987037
  20
133.27821
  30
0.0
   0
SEQEND
   5
468
100
AcDbEntity
   8
MAIN
   6
CONTINUOUS
   0
POLYLINE
   5
469
100
AcDbEntity
   8
MAIN
   6
CONTINUOUS
  62
      7
100
AcDb2dPolyline
  66
      1
  10
0.0
  20
0.0
  30
0.0
  70
      1
  75
      5
   0
VERTEX
   5
46A
100
AcDbEntity
   8
MAIN
   6
CONTINUOUS
  62
      7
100
AcDbVertex
100
AcDb2dVertex
  10
230.878787
  20
133.34071
  30
0.0
   0
VERTEX
   5
46B
100
AcDbEntity
   8
MAIN
   6
CONTINUOUS
  62
      7
100
AcDbVertex
100
AcDb2dVertex
  10
230.987037
  20
133.40321
  30
0.0
   0
VERTEX
   5
46C
100
AcDbEntity
   8
MAIN
   6
CONTINUOUS
  62
      7
100
AcDbVertex
100
AcDb2dVertex
  10
229.987037
  20
133.34071
  30
0.0
   0
VERTEX
   5
46D
100
AcDbEntity
   8
MAIN
   6
CONTINUOUS
  62
      7
100
AcDbVertex
100
AcDb2dVertex
  10
230.095287
  20
133.27821
  30
0.0
   0
SEQEND
   5
46E
100
AcDbEntity
   8
MAIN
   6
CONTINUOUS
   0
POLYLINE
   5
46F
100
AcDbEntity
   8
MAIN
   6
CONTINUOUS
  62
      7
100
AcDb2dPolyline
  66
      1
  10
0.0
  20
0.0
  30
0.0
  70
      1
  75
      5
   0
VERTEX
   5
470
100
AcDbEntity
   8
MAIN
   6
CONTINUOUS
  62
      7
100
AcDbVertex
100
AcDb2dVertex
  10
229.987037
  20
133.34071
  30
0.0
   0
VERTEX
   5
471
100
AcDbEntity
   8
MAIN
   6
CONTINUOUS
  62
      7
100
AcDbVertex
100
AcDb2dVertex
  10
230.095287
  20
133.40321
  30
0.0
   0
VERTEX
   5
472
100
AcDbEntity
   8
MAIN
   6
CONTINUOUS
  62
      7
100
AcDbVertex
100
AcDb2dVertex
  10
230.878777
  20
133.46571
  30
0.0
   0
VERTEX
   5
473
100
AcDbEntity
   8
MAIN
   6
CONTINUOUS
  62
      7
100
AcDbVertex
100
AcDb2dVertex
  10
230.987027
  20
133.40321
  30
0.0
   0
SEQEND
   5
474
100
AcDbEntity
   8
MAIN
   6
CONTINUOUS
   0
POLYLINE
   5
475
100
AcDbEntity
   8
MAIN
   6
CONTINUOUS
  62
      7
100
AcDb2dPolyline
  66
      1
  10
0.0
  20
0.0
  30
0.0
  70
      1
  75
      5
   0
VERTEX
   5
476
100
AcDbEntity
   8
MAIN
   6
CONTINUOUS
  62
      7
100
AcDbVertex
100
AcDb2dVertex
  10
230.878777
  20
133.46571
  30
0.0
   0
VERTEX
   5
477
100
AcDbEntity
   8
MAIN
   6
CONTINUOUS
  62
      7
100
AcDbVertex
100
AcDb2dVertex
  10
230.987027
  20
133.52821
  30
0.0
   0
VERTEX
   5
478
100
AcDbEntity
   8
MAIN
   6
CONTINUOUS
  62
      7
100
AcDbVertex
100
AcDb2dVertex
  10
229.987027
  20
133.46571
  30
0.0
   0
VERTEX
   5
479
100
AcDbEntity
   8
MAIN
   6
CONTINUOUS
  62
      7
100
AcDbVertex
100
AcDb2dVertex
  10
230.095277
  20
133.40321
  30
0.0
   0
SEQEND
   5
47A
100
AcDbEntity
   8
MAIN
   6
CONTINUOUS
   0
POLYLINE
   5
47B
100
AcDbEntity
   8
MAIN
   6
CONTINUOUS
  62
      7
100
AcDb2dPolyline
  66
      1
  10
0.0
  20
0.0
  30
0.0
  70
      1
  75
      5
   0
VERTEX
   5
47C
100
AcDbEntity
   8
MAIN
   6
CONTINUOUS
  62
      7
100
AcDbVertex
100
AcDb2dVertex
  10
229.987027
  20
133.46571
  30
0.0
   0
VERTEX
   5
47D
100
AcDbEntity
   8
MAIN
   6
CONTINUOUS
  62
      7
100
AcDbVertex
100
AcDb2dVertex
  10
230.095277
  20
133.52821
  30
0.0
   0
VERTEX
   5
47E
100
AcDbEntity
   8
MAIN
   6
CONTINUOUS
  62
      7
100
AcDbVertex
100
AcDb2dVertex
  10
230.878767
  20
133.59071
  30
0.0
   0
VERTEX
   5
47F
100
AcDbEntity
   8
MAIN
   6
CONTINUOUS
  62
      7
100
AcDbVertex
100
AcDb2dVertex
  10
230.987017
  20
133.52821
  30
0.0
   0
SEQEND
   5
480
100
AcDbEntity
   8
MAIN
   6
CONTINUOUS
   0
POLYLINE
   5
481
100
AcDbEntity
   8
MAIN
   6
CONTINUOUS
  62
      7
100
AcDb2dPolyline
  66
      1
  10
0.0
  20
0.0
  30
0.0
  70
      1
  75
      5
   0
VERTEX
   5
482
100
AcDbEntity
   8
MAIN
   6
CONTINUOUS
  62
      7
100
AcDbVertex
100
AcDb2dVertex
  10
230.878767
  20
133.59071
  30
0.0
   0
VERTEX
   5
483
100
AcDbEntity
   8
MAIN
   6
CONTINUOUS
  62
      7
100
AcDbVertex
100
AcDb2dVertex
  10
230.987017
  20
133.65321
  30
0.0
   0
VERTEX
   5
484
100
AcDbEntity
   8
MAIN
   6
CONTINUOUS
  62
      7
100
AcDbVertex
100
AcDb2dVertex
  10
229.987017
  20
133.59071
  30
0.0
   0
VERTEX
   5
485
100
AcDbEntity
   8
MAIN
   6
CONTINUOUS
  62
      7
100
AcDbVertex
100
AcDb2dVertex
  10
230.095267
  20
133.52821
  30
0.0
   0
SEQEND
   5
486
100
AcDbEntity
   8
MAIN
   6
CONTINUOUS
   0
POLYLINE
   5
487
100
AcDbEntity
   8
MAIN
   6
CONTINUOUS
  62
      7
100
AcDb2dPolyline
  66
      1
  10
0.0
  20
0.0
  30
0.0
  70
      1
  75
      5
   0
VERTEX
   5
488
100
AcDbEntity
   8
MAIN
   6
CONTINUOUS
  62
      7
100
AcDbVertex
100
AcDb2dVertex
  10
229.987017
  20
133.59071
  30
0.0
   0
VERTEX
   5
489
100
AcDbEntity
   8
MAIN
   6
CONTINUOUS
  62
      7
100
AcDbVertex
100
AcDb2dVertex
  10
230.095267
  20
133.65321
  30
0.0
   0
VERTEX
   5
48A
100
AcDbEntity
   8
MAIN
   6
CONTINUOUS
  62
      7
100
AcDbVertex
100
AcDb2dVertex
  10
230.878757
  20
133.71571
  30
0.0
   0
VERTEX
   5
48B
100
AcDbEntity
   8
MAIN
   6
CONTINUOUS
  62
      7
100
AcDbVertex
100
AcDb2dVertex
  10
230.987007
  20
133.65321
  30
0.0
   0
SEQEND
   5
48C
100
AcDbEntity
   8
MAIN
   6
CONTINUOUS
   0
POLYLINE
   5
48D
100
AcDbEntity
   8
MAIN
   6
CONTINUOUS
  62
      7
100
AcDb2dPolyline
  66
      1
  10
0.0
  20
0.0
  30
0.0
  70
      1
  75
      5
   0
VERTEX
   5
48E
100
AcDbEntity
   8
MAIN
   6
CONTINUOUS
  62
      7
100
AcDbVertex
100
AcDb2dVertex
  10
230.878757
  20
133.71571
  30
0.0
   0
VERTEX
   5
48F
100
AcDbEntity
   8
MAIN
   6
CONTINUOUS
  62
      7
100
AcDbVertex
100
AcDb2dVertex
  10
230.987007
  20
133.77821
  30
0.0
   0
VERTEX
   5
490
100
AcDbEntity
   8
MAIN
   6
CONTINUOUS
  62
      7
100
AcDbVertex
100
AcDb2dVertex
  10
229.987007
  20
133.71571
  30
0.0
   0
VERTEX
   5
491
100
AcDbEntity
   8
MAIN
   6
CONTINUOUS
  62
      7
100
AcDbVertex
100
AcDb2dVertex
  10
230.095257
  20
133.65321
  30
0.0
   0
SEQEND
   5
492
100
AcDbEntity
   8
MAIN
   6
CONTINUOUS
   0
POLYLINE
   5
493
100
AcDbEntity
   8
MAIN
   6
CONTINUOUS
  62
      7
100
AcDb2dPolyline
  66
      1
  10
0.0
  20
0.0
  30
0.0
  70
      1
  75
      5
   0
VERTEX
   5
494
100
AcDbEntity
   8
MAIN
   6
CONTINUOUS
  62
      7
100
AcDbVertex
100
AcDb2dVertex
  10
229.987007
  20
133.71571
  30
0.0
   0
VERTEX
   5
495
100
AcDbEntity
   8
MAIN
   6
CONTINUOUS
  62
      7
100
AcDbVertex
100
AcDb2dVertex
  10
230.095257
  20
133.77821
  30
0.0
   0
VERTEX
   5
496
100
AcDbEntity
   8
MAIN
   6
CONTINUOUS
  62
      7
100
AcDbVertex
100
AcDb2dVertex
  10
230.878747
  20
133.84071
  30
0.0
   0
VERTEX
   5
497
100
AcDbEntity
   8
MAIN
   6
CONTINUOUS
  62
      7
100
AcDbVertex
100
AcDb2dVertex
  10
230.986997
  20
133.77821
  30
0.0
   0
SEQEND
   5
498
100
AcDbEntity
   8
MAIN
   6
CONTINUOUS
   0
POLYLINE
   5
499
100
AcDbEntity
   8
MAIN
   6
CONTINUOUS
  62
      7
100
AcDb2dPolyline
  66
      1
  10
0.0
  20
0.0
  30
0.0
  70
      1
  75
      5
   0
VERTEX
   5
49A
100
AcDbEntity
   8
MAIN
   6
CONTINUOUS
  62
      7
100
AcDbVertex
100
AcDb2dVertex
  10
230.878747
  20
133.84071
  30
0.0
   0
VERTEX
   5
49B
100
AcDbEntity
   8
MAIN
   6
CONTINUOUS
  62
      7
100
AcDbVertex
100
AcDb2dVertex
  10
230.986997
  20
133.90321
  30
0.0
   0
VERTEX
   5
49C
100
AcDbEntity
   8
MAIN
   6
CONTINUOUS
  62
      7
100
AcDbVertex
100
AcDb2dVertex
  10
229.986997
  20
133.84071
  30
0.0
   0
VERTEX
   5
49D
100
AcDbEntity
   8
MAIN
   6
CONTINUOUS
  62
      7
100
AcDbVertex
100
AcDb2dVertex
  10
230.095247
  20
133.77821
  30
0.0
   0
SEQEND
   5
49E
100
AcDbEntity
   8
MAIN
   6
CONTINUOUS
   0
POLYLINE
   5
49F
100
AcDbEntity
   8
MAIN
   6
CONTINUOUS
  62
      7
100
AcDb2dPolyline
  66
      1
  10
0.0
  20
0.0
  30
0.0
  70
      1
  75
      5
   0
VERTEX
   5
4A0
100
AcDbEntity
   8
MAIN
   6
CONTINUOUS
  62
      7
100
AcDbVertex
100
AcDb2dVertex
  10
229.986997
  20
133.84071
  30
0.0
   0
VERTEX
   5
4A1
100
AcDbEntity
   8
MAIN
   6
CONTINUOUS
  62
      7
100
AcDbVertex
100
AcDb2dVertex
  10
230.095247
  20
133.90321
  30
0.0
   0
VERTEX
   5
4A2
100
AcDbEntity
   8
MAIN
   6
CONTINUOUS
  62
      7
100
AcDbVertex
100
AcDb2dVertex
  10
230.878737
  20
133.96571
  30
0.0
   0
VERTEX
   5
4A3
100
AcDbEntity
   8
MAIN
   6
CONTINUOUS
  62
      7
100
AcDbVertex
100
AcDb2dVertex
  10
230.986987
  20
133.90321
  30
0.0
   0
SEQEND
   5
4A4
100
AcDbEntity
   8
MAIN
   6
CONTINUOUS
   0
POLYLINE
   5
4A5
100
AcDbEntity
   8
MAIN
   6
CONTINUOUS
  62
      7
100
AcDb2dPolyline
  66
      1
  10
0.0
  20
0.0
  30
0.0
  70
      1
  75
      5
   0
VERTEX
   5
4A6
100
AcDbEntity
   8
MAIN
   6
CONTINUOUS
  62
      7
100
AcDbVertex
100
AcDb2dVertex
  10
230.878737
  20
133.96571
  30
0.0
   0
VERTEX
   5
4A7
100
AcDbEntity
   8
MAIN
   6
CONTINUOUS
  62
      7
100
AcDbVertex
100
AcDb2dVertex
  10
230.986987
  20
134.02821
  30
0.0
   0
VERTEX
   5
4A8
100
AcDbEntity
   8
MAIN
   6
CONTINUOUS
  62
      7
100
AcDbVertex
100
AcDb2dVertex
  10
229.986987
  20
133.96571
  30
0.0
   0
VERTEX
   5
4A9
100
AcDbEntity
   8
MAIN
   6
CONTINUOUS
  62
      7
100
AcDbVertex
100
AcDb2dVertex
  10
230.095237
  20
133.90321
  30
0.0
   0
SEQEND
   5
4AA
100
AcDbEntity
   8
MAIN
   6
CONTINUOUS
   0
POLYLINE
   5
4AB
100
AcDbEntity
   8
MAIN
   6
CONTINUOUS
  62
      7
100
AcDb2dPolyline
  66
      1
  10
0.0
  20
0.0
  30
0.0
  70
      1
  75
      5
   0
VERTEX
   5
4AC
100
AcDbEntity
   8
MAIN
   6
CONTINUOUS
  62
      7
100
AcDbVertex
100
AcDb2dVertex
  10
229.986987
  20
133.96571
  30
0.0
   0
VERTEX
   5
4AD
100
AcDbEntity
   8
MAIN
   6
CONTINUOUS
  62
      7
100
AcDbVertex
100
AcDb2dVertex
  10
230.095237
  20
134.02821
  30
0.0
   0
VERTEX
   5
4AE
100
AcDbEntity
   8
MAIN
   6
CONTINUOUS
  62
      7
100
AcDbVertex
100
AcDb2dVertex
  10
230.878727
  20
134.09071
  30
0.0
   0
VERTEX
   5
4AF
100
AcDbEntity
   8
MAIN
   6
CONTINUOUS
  62
      7
100
AcDbVertex
100
AcDb2dVertex
  10
230.986977
  20
134.02821
  30
0.0
   0
SEQEND
   5
4B0
100
AcDbEntity
   8
MAIN
   6
CONTINUOUS
   0
POLYLINE
   5
4B1
100
AcDbEntity
   8
MAIN
   6
CONTINUOUS
  62
      7
100
AcDb2dPolyline
  66
      1
  10
0.0
  20
0.0
  30
0.0
  70
      1
  75
      5
   0
VERTEX
   5
4B2
100
AcDbEntity
   8
MAIN
   6
CONTINUOUS
  62
      7
100
AcDbVertex
100
AcDb2dVertex
  10
230.878727
  20
134.09071
  30
0.0
   0
VERTEX
   5
4B3
100
AcDbEntity
   8
MAIN
   6
CONTINUOUS
  62
      7
100
AcDbVertex
100
AcDb2dVertex
  10
230.986977
  20
134.15321
  30
0.0
   0
VERTEX
   5
4B4
100
AcDbEntity
   8
MAIN
   6
CONTINUOUS
  62
      7
100
AcDbVertex
100
AcDb2dVertex
  10
229.986977
  20
134.09071
  30
0.0
   0
VERTEX
   5
4B5
100
AcDbEntity
   8
MAIN
   6
CONTINUOUS
  62
      7
100
AcDbVertex
100
AcDb2dVertex
  10
230.095227
  20
134.02821
  30
0.0
   0
SEQEND
   5
4B6
100
AcDbEntity
   8
MAIN
   6
CONTINUOUS
   0
POLYLINE
   5
4B7
100
AcDbEntity
   8
MAIN
   6
CONTINUOUS
  62
      7
100
AcDb2dPolyline
  66
      1
  10
0.0
  20
0.0
  30
0.0
  70
      1
  75
      5
   0
VERTEX
   5
4B8
100
AcDbEntity
   8
MAIN
   6
CONTINUOUS
  62
      7
100
AcDbVertex
100
AcDb2dVertex
  10
229.986977
  20
134.09071
  30
0.0
   0
VERTEX
   5
4B9
100
AcDbEntity
   8
MAIN
   6
CONTINUOUS
  62
      7
100
AcDbVertex
100
AcDb2dVertex
  10
230.095227
  20
134.15321
  30
0.0
   0
VERTEX
   5
4BA
100
AcDbEntity
   8
MAIN
   6
CONTINUOUS
  62
      7
100
AcDbVertex
100
AcDb2dVertex
  10
230.878717
  20
134.21571
  30
0.0
   0
VERTEX
   5
4BB
100
AcDbEntity
   8
MAIN
   6
CONTINUOUS
  62
      7
100
AcDbVertex
100
AcDb2dVertex
  10
230.986967
  20
134.15321
  30
0.0
   0
SEQEND
   5
4BC
100
AcDbEntity
   8
MAIN
   6
CONTINUOUS
   0
POLYLINE
   5
4BD
100
AcDbEntity
   8
MAIN
   6
CONTINUOUS
  62
      7
100
AcDb2dPolyline
  66
      1
  10
0.0
  20
0.0
  30
0.0
  70
      1
  75
      5
   0
VERTEX
   5
4BE
100
AcDbEntity
   8
MAIN
   6
CONTINUOUS
  62
      7
100
AcDbVertex
100
AcDb2dVertex
  10
230.878717
  20
134.21571
  30
0.0
   0
VERTEX
   5
4BF
100
AcDbEntity
   8
MAIN
   6
CONTINUOUS
  62
      7
100
AcDbVertex
100
AcDb2dVertex
  10
230.986967
  20
134.27821
  30
0.0
   0
VERTEX
   5
4C0
100
AcDbEntity
   8
MAIN
   6
CONTINUOUS
  62
      7
100
AcDbVertex
100
AcDb2dVertex
  10
229.986967
  20
134.21571
  30
0.0
   0
VERTEX
   5
4C1
100
AcDbEntity
   8
MAIN
   6
CONTINUOUS
  62
      7
100
AcDbVertex
100
AcDb2dVertex
  10
230.095217
  20
134.15321
  30
0.0
   0
SEQEND
   5
4C2
100
AcDbEntity
   8
MAIN
   6
CONTINUOUS
   0
POLYLINE
   5
4C3
100
AcDbEntity
   8
MAIN
   6
CONTINUOUS
  62
      7
100
AcDb2dPolyline
  66
      1
  10
0.0
  20
0.0
  30
0.0
  70
      1
  75
      5
   0
VERTEX
   5
4C4
100
AcDbEntity
   8
MAIN
   6
CONTINUOUS
  62
      7
100
AcDbVertex
100
AcDb2dVertex
  10
229.986967
  20
134.21571
  30
0.0
   0
VERTEX
   5
4C5
100
AcDbEntity
   8
MAIN
   6
CONTINUOUS
  62
      7
100
AcDbVertex
100
AcDb2dVertex
  10
230.095217
  20
134.27821
  30
0.0
   0
VERTEX
   5
4C6
100
AcDbEntity
   8
MAIN
   6
CONTINUOUS
  62
      7
100
AcDbVertex
100
AcDb2dVertex
  10
230.878707
  20
134.34071
  30
0.0
   0
VERTEX
   5
4C7
100
AcDbEntity
   8
MAIN
   6
CONTINUOUS
  62
      7
100
AcDbVertex
100
AcDb2dVertex
  10
230.986957
  20
134.27821
  30
0.0
   0
SEQEND
   5
4C8
100
AcDbEntity
   8
MAIN
   6
CONTINUOUS
   0
POLYLINE
   5
4C9
100
AcDbEntity
   8
MAIN
   6
CONTINUOUS
  62
      7
100
AcDb2dPolyline
  66
      1
  10
0.0
  20
0.0
  30
0.0
  70
      1
  75
      5
   0
VERTEX
   5
4CA
100
AcDbEntity
   8
MAIN
   6
CONTINUOUS
  62
      7
100
AcDbVertex
100
AcDb2dVertex
  10
230.878707
  20
134.34071
  30
0.0
   0
VERTEX
   5
4CB
100
AcDbEntity
   8
MAIN
   6
CONTINUOUS
  62
      7
100
AcDbVertex
100
AcDb2dVertex
  10
230.986957
  20
134.40321
  30
0.0
   0
VERTEX
   5
4CC
100
AcDbEntity
   8
MAIN
   6
CONTINUOUS
  62
      7
100
AcDbVertex
100
AcDb2dVertex
  10
229.986957
  20
134.34071
  30
0.0
   0
VERTEX
   5
4CD
100
AcDbEntity
   8
MAIN
   6
CONTINUOUS
  62
      7
100
AcDbVertex
100
AcDb2dVertex
  10
230.095207
  20
134.27821
  30
0.0
   0
SEQEND
   5
4CE
100
AcDbEntity
   8
MAIN
   6
CONTINUOUS
   0
POLYLINE
   5
4CF
100
AcDbEntity
   8
MAIN
   6
CONTINUOUS
  62
      7
100
AcDb2dPolyline
  66
      1
  10
0.0
  20
0.0
  30
0.0
  70
      1
  75
      5
   0
VERTEX
   5
4D0
100
AcDbEntity
   8
MAIN
   6
CONTINUOUS
  62
      7
100
AcDbVertex
100
AcDb2dVertex
  10
229.986957
  20
134.34071
  30
0.0
   0
VERTEX
   5
4D1
100
AcDbEntity
   8
MAIN
   6
CONTINUOUS
  62
      7
100
AcDbVertex
100
AcDb2dVertex
  10
230.095207
  20
134.40321
  30
0.0
   0
VERTEX
   5
4D2
100
AcDbEntity
   8
MAIN
   6
CONTINUOUS
  62
      7
100
AcDbVertex
100
AcDb2dVertex
  10
230.878697
  20
134.46571
  30
0.0
   0
VERTEX
   5
4D3
100
AcDbEntity
   8
MAIN
   6
CONTINUOUS
  62
      7
100
AcDbVertex
100
AcDb2dVertex
  10
230.986947
  20
134.40321
  30
0.0
   0
SEQEND
   5
4D4
100
AcDbEntity
   8
MAIN
   6
CONTINUOUS
   0
POLYLINE
   5
4D5
100
AcDbEntity
   8
MAIN
   6
CONTINUOUS
  62
      7
100
AcDb2dPolyline
  66
      1
  10
0.0
  20
0.0
  30
0.0
  70
      1
  75
      5
   0
VERTEX
   5
4D6
100
AcDbEntity
   8
MAIN
   6
CONTINUOUS
  62
      7
100
AcDbVertex
100
AcDb2dVertex
  10
230.878697
  20
134.46571
  30
0.0
   0
VERTEX
   5
4D7
100
AcDbEntity
   8
MAIN
   6
CONTINUOUS
  62
      7
100
AcDbVertex
100
AcDb2dVertex
  10
230.986947
  20
134.52821
  30
0.0
   0
VERTEX
   5
4D8
100
AcDbEntity
   8
MAIN
   6
CONTINUOUS
  62
      7
100
AcDbVertex
100
AcDb2dVertex
  10
229.986947
  20
134.46571
  30
0.0
   0
VERTEX
   5
4D9
100
AcDbEntity
   8
MAIN
   6
CONTINUOUS
  62
      7
100
AcDbVertex
100
AcDb2dVertex
  10
230.095197
  20
134.40321
  30
0.0
   0
SEQEND
   5
4DA
100
AcDbEntity
   8
MAIN
   6
CONTINUOUS
   0
POLYLINE
   5
4DB
100
AcDbEntity
   8
MAIN
   6
CONTINUOUS
  62
      7
100
AcDb2dPolyline
  66
      1
  10
0.0
  20
0.0
  30
0.0
  70
      1
  75
      5
   0
VERTEX
   5
4DC
100
AcDbEntity
   8
MAIN
   6
CONTINUOUS
  62
      7
100
AcDbVertex
100
AcDb2dVertex
  10
229.986947
  20
134.46571
  30
0.0
   0
VERTEX
   5
4DD
100
AcDbEntity
   8
MAIN
   6
CONTINUOUS
  62
      7
100
AcDbVertex
100
AcDb2dVertex
  10
230.095197
  20
134.52821
  30
0.0
   0
VERTEX
   5
4DE
100
AcDbEntity
   8
MAIN
   6
CONTINUOUS
  62
      7
100
AcDbVertex
100
AcDb2dVertex
  10
230.878687
  20
134.59071
  30
0.0
   0
VERTEX
   5
4DF
100
AcDbEntity
   8
MAIN
   6
CONTINUOUS
  62
      7
100
AcDbVertex
100
AcDb2dVertex
  10
230.986937
  20
134.52821
  30
0.0
   0
SEQEND
   5
4E0
100
AcDbEntity
   8
MAIN
   6
CONTINUOUS
   0
POLYLINE
   5
4E1
100
AcDbEntity
   8
MAIN
   6
CONTINUOUS
  62
      7
100
AcDb2dPolyline
  66
      1
  10
0.0
  20
0.0
  30
0.0
  70
      1
  75
      5
   0
VERTEX
   5
4E2
100
AcDbEntity
   8
MAIN
   6
CONTINUOUS
  62
      7
100
AcDbVertex
100
AcDb2dVertex
  10
230.878687
  20
134.59071
  30
0.0
   0
VERTEX
   5
4E3
100
AcDbEntity
   8
MAIN
   6
CONTINUOUS
  62
      7
100
AcDbVertex
100
AcDb2dVertex
  10
230.986937
  20
134.65321
  30
0.0
   0
VERTEX
   5
4E4
100
AcDbEntity
   8
MAIN
   6
CONTINUOUS
  62
      7
100
AcDbVertex
100
AcDb2dVertex
  10
229.986937
  20
134.59071
  30
0.0
   0
VERTEX
   5
4E5
100
AcDbEntity
   8
MAIN
   6
CONTINUOUS
  62
      7
100
AcDbVertex
100
AcDb2dVertex
  10
230.095187
  20
134.52821
  30
0.0
   0
SEQEND
   5
4E6
100
AcDbEntity
   8
MAIN
   6
CONTINUOUS
   0
POLYLINE
   5
4E7
100
AcDbEntity
   8
MAIN
   6
CONTINUOUS
  62
      7
100
AcDb2dPolyline
  66
      1
  10
0.0
  20
0.0
  30
0.0
  70
      1
  75
      5
   0
VERTEX
   5
4E8
100
AcDbEntity
   8
MAIN
   6
CONTINUOUS
  62
      7
100
AcDbVertex
100
AcDb2dVertex
  10
229.986937
  20
134.59071
  30
0.0
   0
VERTEX
   5
4E9
100
AcDbEntity
   8
MAIN
   6
CONTINUOUS
  62
      7
100
AcDbVertex
100
AcDb2dVertex
  10
230.095187
  20
134.65321
  30
0.0
   0
VERTEX
   5
4EA
100
AcDbEntity
   8
MAIN
   6
CONTINUOUS
  62
      7
100
AcDbVertex
100
AcDb2dVertex
  10
230.878677
  20
134.71571
  30
0.0
   0
VERTEX
   5
4EB
100
AcDbEntity
   8
MAIN
   6
CONTINUOUS
  62
      7
100
AcDbVertex
100
AcDb2dVertex
  10
230.986927
  20
134.65321
  30
0.0
   0
SEQEND
   5
4EC
100
AcDbEntity
   8
MAIN
   6
CONTINUOUS
   0
POLYLINE
   5
4ED
100
AcDbEntity
   8
MAIN
   6
CONTINUOUS
  62
      7
100
AcDb2dPolyline
  66
      1
  10
0.0
  20
0.0
  30
0.0
  70
      1
  75
      5
   0
VERTEX
   5
4EE
100
AcDbEntity
   8
MAIN
   6
CONTINUOUS
  62
      7
100
AcDbVertex
100
AcDb2dVertex
  10
230.878677
  20
134.71571
  30
0.0
   0
VERTEX
   5
4EF
100
AcDbEntity
   8
MAIN
   6
CONTINUOUS
  62
      7
100
AcDbVertex
100
AcDb2dVertex
  10
230.986927
  20
134.77821
  30
0.0
   0
VERTEX
   5
4F0
100
AcDbEntity
   8
MAIN
   6
CONTINUOUS
  62
      7
100
AcDbVertex
100
AcDb2dVertex
  10
229.986927
  20
134.71571
  30
0.0
   0
VERTEX
   5
4F1
100
AcDbEntity
   8
MAIN
   6
CONTINUOUS
  62
      7
100
AcDbVertex
100
AcDb2dVertex
  10
230.095177
  20
134.65321
  30
0.0
   0
SEQEND
   5
4F2
100
AcDbEntity
   8
MAIN
   6
CONTINUOUS
   0
POLYLINE
   5
4F3
100
AcDbEntity
   8
MAIN
   6
CONTINUOUS
  62
      7
100
AcDb2dPolyline
  66
      1
  10
0.0
  20
0.0
  30
0.0
  70
      1
  75
      5
   0
VERTEX
   5
4F4
100
AcDbEntity
   8
MAIN
   6
CONTINUOUS
  62
      7
100
AcDbVertex
100
AcDb2dVertex
  10
229.986927
  20
134.71571
  30
0.0
   0
VERTEX
   5
4F5
100
AcDbEntity
   8
MAIN
   6
CONTINUOUS
  62
      7
100
AcDbVertex
100
AcDb2dVertex
  10
230.095177
  20
134.77821
  30
0.0
   0
VERTEX
   5
4F6
100
AcDbEntity
   8
MAIN
   6
CONTINUOUS
  62
      7
100
AcDbVertex
100
AcDb2dVertex
  10
230.878667
  20
134.84071
  30
0.0
   0
VERTEX
   5
4F7
100
AcDbEntity
   8
MAIN
   6
CONTINUOUS
  62
      7
100
AcDbVertex
100
AcDb2dVertex
  10
230.986917
  20
134.77821
  30
0.0
   0
SEQEND
   5
4F8
100
AcDbEntity
   8
MAIN
   6
CONTINUOUS
   0
POLYLINE
   5
4F9
100
AcDbEntity
   8
MAIN
   6
CONTINUOUS
  62
      7
100
AcDb2dPolyline
  66
      1
  10
0.0
  20
0.0
  30
0.0
  70
      1
  75
      5
   0
VERTEX
   5
4FA
100
AcDbEntity
   8
MAIN
   6
CONTINUOUS
  62
      7
100
AcDbVertex
100
AcDb2dVertex
  10
230.878667
  20
134.84071
  30
0.0
   0
VERTEX
   5
4FB
100
AcDbEntity
   8
MAIN
   6
CONTINUOUS
  62
      7
100
AcDbVertex
100
AcDb2dVertex
  10
230.986917
  20
134.90321
  30
0.0
   0
VERTEX
   5
4FC
100
AcDbEntity
   8
MAIN
   6
CONTINUOUS
  62
      7
100
AcDbVertex
100
AcDb2dVertex
  10
229.986917
  20
134.84071
  30
0.0
   0
VERTEX
   5
4FD
100
AcDbEntity
   8
MAIN
   6
CONTINUOUS
  62
      7
100
AcDbVertex
100
AcDb2dVertex
  10
230.095167
  20
134.77821
  30
0.0
   0
SEQEND
   5
4FE
100
AcDbEntity
   8
MAIN
   6
CONTINUOUS
   0
POLYLINE
   5
4FF
100
AcDbEntity
   8
MAIN
   6
CONTINUOUS
  62
      7
100
AcDb2dPolyline
  66
      1
  10
0.0
  20
0.0
  30
0.0
  70
      1
  75
      5
   0
VERTEX
   5
500
100
AcDbEntity
   8
MAIN
   6
CONTINUOUS
  62
      7
100
AcDbVertex
100
AcDb2dVertex
  10
229.986917
  20
134.84071
  30
0.0
   0
VERTEX
   5
501
100
AcDbEntity
   8
MAIN
   6
CONTINUOUS
  62
      7
100
AcDbVertex
100
AcDb2dVertex
  10
230.095167
  20
134.90321
  30
0.0
   0
VERTEX
   5
502
100
AcDbEntity
   8
MAIN
   6
CONTINUOUS
  62
      7
100
AcDbVertex
100
AcDb2dVertex
  10
230.878657
  20
134.96571
  30
0.0
   0
VERTEX
   5
503
100
AcDbEntity
   8
MAIN
   6
CONTINUOUS
  62
      7
100
AcDbVertex
100
AcDb2dVertex
  10
230.986907
  20
134.90321
  30
0.0
   0
SEQEND
   5
504
100
AcDbEntity
   8
MAIN
   6
CONTINUOUS
   0
POLYLINE
   5
505
100
AcDbEntity
   8
MAIN
   6
CONTINUOUS
  62
      7
100
AcDb2dPolyline
  66
      1
  10
0.0
  20
0.0
  30
0.0
  70
      1
  75
      5
   0
VERTEX
   5
506
100
AcDbEntity
   8
MAIN
   6
CONTINUOUS
  62
      7
100
AcDbVertex
100
AcDb2dVertex
  10
230.878657
  20
134.96571
  30
0.0
   0
VERTEX
   5
507
100
AcDbEntity
   8
MAIN
   6
CONTINUOUS
  62
      7
100
AcDbVertex
100
AcDb2dVertex
  10
230.986907
  20
135.02821
  30
0.0
   0
VERTEX
   5
508
100
AcDbEntity
   8
MAIN
   6
CONTINUOUS
  62
      7
100
AcDbVertex
100
AcDb2dVertex
  10
229.986907
  20
134.96571
  30
0.0
   0
VERTEX
   5
509
100
AcDbEntity
   8
MAIN
   6
CONTINUOUS
  62
      7
100
AcDbVertex
100
AcDb2dVertex
  10
230.095157
  20
134.90321
  30
0.0
   0
SEQEND
   5
50A
100
AcDbEntity
   8
MAIN
   6
CONTINUOUS
   0
POLYLINE
   5
50B
100
AcDbEntity
   8
MAIN
   6
CONTINUOUS
  62
      7
100
AcDb2dPolyline
  66
      1
  10
0.0
  20
0.0
  30
0.0
  70
      1
  75
      5
   0
VERTEX
   5
50C
100
AcDbEntity
   8
MAIN
   6
CONTINUOUS
  62
      7
100
AcDbVertex
100
AcDb2dVertex
  10
229.986907
  20
134.96571
  30
0.0
   0
VERTEX
   5
50D
100
AcDbEntity
   8
MAIN
   6
CONTINUOUS
  62
      7
100
AcDbVertex
100
AcDb2dVertex
  10
230.095157
  20
135.02821
  30
0.0
   0
VERTEX
   5
50E
100
AcDbEntity
   8
MAIN
   6
CONTINUOUS
  62
      7
100
AcDbVertex
100
AcDb2dVertex
  10
230.878647
  20
135.09071
  30
0.0
   0
VERTEX
   5
50F
100
AcDbEntity
   8
MAIN
   6
CONTINUOUS
  62
      7
100
AcDbVertex
100
AcDb2dVertex
  10
230.986897
  20
135.02821
  30
0.0
   0
SEQEND
   5
510
100
AcDbEntity
   8
MAIN
   6
CONTINUOUS
   0
POLYLINE
   5
511
100
AcDbEntity
   8
MAIN
   6
CONTINUOUS
  62
      7
100
AcDb2dPolyline
  66
      1
  10
0.0
  20
0.0
  30
0.0
  70
      1
  75
      5
   0
VERTEX
   5
512
100
AcDbEntity
   8
MAIN
   6
CONTINUOUS
  62
      7
100
AcDbVertex
100
AcDb2dVertex
  10
230.878647
  20
135.09071
  30
0.0
   0
VERTEX
   5
513
100
AcDbEntity
   8
MAIN
   6
CONTINUOUS
  62
      7
100
AcDbVertex
100
AcDb2dVertex
  10
230.986897
  20
135.15321
  30
0.0
   0
VERTEX
   5
514
100
AcDbEntity
   8
MAIN
   6
CONTINUOUS
  62
      7
100
AcDbVertex
100
AcDb2dVertex
  10
229.986897
  20
135.09071
  30
0.0
   0
VERTEX
   5
515
100
AcDbEntity
   8
MAIN
   6
CONTINUOUS
  62
      7
100
AcDbVertex
100
AcDb2dVertex
  10
230.095147
  20
135.02821
  30
0.0
   0
SEQEND
   5
516
100
AcDbEntity
   8
MAIN
   6
CONTINUOUS
   0
POLYLINE
   5
517
100
AcDbEntity
   8
MAIN
   6
CONTINUOUS
  62
      7
100
AcDb2dPolyline
  66
      1
  10
0.0
  20
0.0
  30
0.0
  70
      1
  75
      5
   0
VERTEX
   5
518
100
AcDbEntity
   8
MAIN
   6
CONTINUOUS
  62
      7
100
AcDbVertex
100
AcDb2dVertex
  10
229.986897
  20
135.09071
  30
0.0
   0
VERTEX
   5
519
100
AcDbEntity
   8
MAIN
   6
CONTINUOUS
  62
      7
100
AcDbVertex
100
AcDb2dVertex
  10
230.095147
  20
135.15321
  30
0.0
   0
VERTEX
   5
51A
100
AcDbEntity
   8
MAIN
   6
CONTINUOUS
  62
      7
100
AcDbVertex
100
AcDb2dVertex
  10
230.878637
  20
135.21571
  30
0.0
   0
VERTEX
   5
51B
100
AcDbEntity
   8
MAIN
   6
CONTINUOUS
  62
      7
100
AcDbVertex
100
AcDb2dVertex
  10
230.986887
  20
135.15321
  30
0.0
   0
SEQEND
   5
51C
100
AcDbEntity
   8
MAIN
   6
CONTINUOUS
   0
POLYLINE
   5
51D
100
AcDbEntity
   8
MAIN
   6
CONTINUOUS
  62
      7
100
AcDb2dPolyline
  66
      1
  10
0.0
  20
0.0
  30
0.0
  70
      1
  75
      5
   0
VERTEX
   5
51E
100
AcDbEntity
   8
MAIN
   6
CONTINUOUS
  62
      7
100
AcDbVertex
100
AcDb2dVertex
  10
230.878637
  20
135.21571
  30
0.0
   0
VERTEX
   5
51F
100
AcDbEntity
   8
MAIN
   6
CONTINUOUS
  62
      7
100
AcDbVertex
100
AcDb2dVertex
  10
230.986887
  20
135.27821
  30
0.0
   0
VERTEX
   5
520
100
AcDbEntity
   8
MAIN
   6
CONTINUOUS
  62
      7
100
AcDbVertex
100
AcDb2dVertex
  10
229.986887
  20
135.21571
  30
0.0
   0
VERTEX
   5
521
100
AcDbEntity
   8
MAIN
   6
CONTINUOUS
  62
      7
100
AcDbVertex
100
AcDb2dVertex
  10
230.095137
  20
135.15321
  30
0.0
   0
SEQEND
   5
522
100
AcDbEntity
   8
MAIN
   6
CONTINUOUS
   0
POLYLINE
   5
523
100
AcDbEntity
   8
MAIN
   6
CONTINUOUS
  62
      7
100
AcDb2dPolyline
  66
      1
  10
0.0
  20
0.0
  30
0.0
  70
      1
  75
      5
   0
VERTEX
   5
524
100
AcDbEntity
   8
MAIN
   6
CONTINUOUS
  62
      7
100
AcDbVertex
100
AcDb2dVertex
  10
229.986887
  20
135.21571
  30
0.0
   0
VERTEX
   5
525
100
AcDbEntity
   8
MAIN
   6
CONTINUOUS
  62
      7
100
AcDbVertex
100
AcDb2dVertex
  10
230.095137
  20
135.27821
  30
0.0
   0
VERTEX
   5
526
100
AcDbEntity
   8
MAIN
   6
CONTINUOUS
  62
      7
100
AcDbVertex
100
AcDb2dVertex
  10
230.878627
  20
135.34071
  30
0.0
   0
VERTEX
   5
527
100
AcDbEntity
   8
MAIN
   6
CONTINUOUS
  62
      7
100
AcDbVertex
100
AcDb2dVertex
  10
230.986877
  20
135.27821
  30
0.0
   0
SEQEND
   5
528
100
AcDbEntity
   8
MAIN
   6
CONTINUOUS
   0
POLYLINE
   5
529
100
AcDbEntity
   8
MAIN
   6
CONTINUOUS
  62
      7
100
AcDb2dPolyline
  66
      1
  10
0.0
  20
0.0
  30
0.0
  70
      1
  75
      5
   0
VERTEX
   5
52A
100
AcDbEntity
   8
MAIN
   6
CONTINUOUS
  62
      7
100
AcDbVertex
100
AcDb2dVertex
  10
230.878627
  20
135.34071
  30
0.0
   0
VERTEX
   5
52B
100
AcDbEntity
   8
MAIN
   6
CONTINUOUS
  62
      7
100
AcDbVertex
100
AcDb2dVertex
  10
230.986877
  20
135.40321
  30
0.0
   0
VERTEX
   5
52C
100
AcDbEntity
   8
MAIN
   6
CONTINUOUS
  62
      7
100
AcDbVertex
100
AcDb2dVertex
  10
229.986877
  20
135.34071
  30
0.0
   0
VERTEX
   5
52D
100
AcDbEntity
   8
MAIN
   6
CONTINUOUS
  62
      7
100
AcDbVertex
100
AcDb2dVertex
  10
230.095127
  20
135.27821
  30
0.0
   0
SEQEND
   5
52E
100
AcDbEntity
   8
MAIN
   6
CONTINUOUS
   0
POLYLINE
   5
52F
100
AcDbEntity
   8
MAIN
   6
CONTINUOUS
  62
      7
100
AcDb2dPolyline
  66
      1
  10
0.0
  20
0.0
  30
0.0
  70
      1
  75
      5
   0
VERTEX
   5
530
100
AcDbEntity
   8
MAIN
   6
CONTINUOUS
  62
      7
100
AcDbVertex
100
AcDb2dVertex
  10
229.986877
  20
135.34071
  30
0.0
   0
VERTEX
   5
531
100
AcDbEntity
   8
MAIN
   6
CONTINUOUS
  62
      7
100
AcDbVertex
100
AcDb2dVertex
  10
230.095127
  20
135.40321
  30
0.0
   0
VERTEX
   5
532
100
AcDbEntity
   8
MAIN
   6
CONTINUOUS
  62
      7
100
AcDbVertex
100
AcDb2dVertex
  10
230.878617
  20
135.46571
  30
0.0
   0
VERTEX
   5
533
100
AcDbEntity
   8
MAIN
   6
CONTINUOUS
  62
      7
100
AcDbVertex
100
AcDb2dVertex
  10
230.986867
  20
135.40321
  30
0.0
   0
SEQEND
   5
534
100
AcDbEntity
   8
MAIN
   6
CONTINUOUS
   0
POLYLINE
   5
535
100
AcDbEntity
   8
MAIN
   6
CONTINUOUS
  62
      7
100
AcDb2dPolyline
  66
      1
  10
0.0
  20
0.0
  30
0.0
  70
      1
  75
      5
   0
VERTEX
   5
536
100
AcDbEntity
   8
MAIN
   6
CONTINUOUS
  62
      7
100
AcDbVertex
100
AcDb2dVertex
  10
230.878617
  20
135.46571
  30
0.0
   0
VERTEX
   5
537
100
AcDbEntity
   8
MAIN
   6
CONTINUOUS
  62
      7
100
AcDbVertex
100
AcDb2dVertex
  10
230.986867
  20
135.52821
  30
0.0
   0
VERTEX
   5
538
100
AcDbEntity
   8
MAIN
   6
CONTINUOUS
  62
      7
100
AcDbVertex
100
AcDb2dVertex
  10
229.986867
  20
135.46571
  30
0.0
   0
VERTEX
   5
539
100
AcDbEntity
   8
MAIN
   6
CONTINUOUS
  62
      7
100
AcDbVertex
100
AcDb2dVertex
  10
230.095117
  20
135.40321
  30
0.0
   0
SEQEND
   5
53A
100
AcDbEntity
   8
MAIN
   6
CONTINUOUS
   0
POLYLINE
   5
53B
100
AcDbEntity
   8
MAIN
   6
CONTINUOUS
  62
      7
100
AcDb2dPolyline
  66
      1
  10
0.0
  20
0.0
  30
0.0
  70
      1
  75
      5
   0
VERTEX
   5
53C
100
AcDbEntity
   8
MAIN
   6
CONTINUOUS
  62
      7
100
AcDbVertex
100
AcDb2dVertex
  10
229.986867
  20
135.46571
  30
0.0
   0
VERTEX
   5
53D
100
AcDbEntity
   8
MAIN
   6
CONTINUOUS
  62
      7
100
AcDbVertex
100
AcDb2dVertex
  10
230.095117
  20
135.52821
  30
0.0
   0
VERTEX
   5
53E
100
AcDbEntity
   8
MAIN
   6
CONTINUOUS
  62
      7
100
AcDbVertex
100
AcDb2dVertex
  10
230.878607
  20
135.59071
  30
0.0
   0
VERTEX
   5
53F
100
AcDbEntity
   8
MAIN
   6
CONTINUOUS
  62
      7
100
AcDbVertex
100
AcDb2dVertex
  10
230.986857
  20
135.52821
  30
0.0
   0
SEQEND
   5
540
100
AcDbEntity
   8
MAIN
   6
CONTINUOUS
   0
POLYLINE
   5
541
100
AcDbEntity
   8
MAIN
   6
CONTINUOUS
  62
      7
100
AcDb2dPolyline
  66
      1
  10
0.0
  20
0.0
  30
0.0
  70
      1
  75
      5
   0
VERTEX
   5
542
100
AcDbEntity
   8
MAIN
   6
CONTINUOUS
  62
      7
100
AcDbVertex
100
AcDb2dVertex
  10
230.878607
  20
135.59071
  30
0.0
   0
VERTEX
   5
543
100
AcDbEntity
   8
MAIN
   6
CONTINUOUS
  62
      7
100
AcDbVertex
100
AcDb2dVertex
  10
230.986857
  20
135.65321
  30
0.0
   0
VERTEX
   5
544
100
AcDbEntity
   8
MAIN
   6
CONTINUOUS
  62
      7
100
AcDbVertex
100
AcDb2dVertex
  10
229.986857
  20
135.59071
  30
0.0
   0
VERTEX
   5
545
100
AcDbEntity
   8
MAIN
   6
CONTINUOUS
  62
      7
100
AcDbVertex
100
AcDb2dVertex
  10
230.095107
  20
135.52821
  30
0.0
   0
SEQEND
   5
546
100
AcDbEntity
   8
MAIN
   6
CONTINUOUS
   0
POLYLINE
   5
547
100
AcDbEntity
   8
MAIN
   6
CONTINUOUS
  62
      7
100
AcDb2dPolyline
  66
      1
  10
0.0
  20
0.0
  30
0.0
  75
      5
   0
VERTEX
   5
548
100
AcDbEntity
   8
MAIN
   6
CONTINUOUS
  62
      7
100
AcDbVertex
100
AcDb2dVertex
  10
230.986857
  20
135.65321
  30
0.0
   0
VERTEX
   5
549
100
AcDbEntity
   8
MAIN
   6
CONTINUOUS
  62
      7
100
AcDbVertex
100
AcDb2dVertex
  10
229.986857
  20
135.59071
  30
0.0
   0
VERTEX
   5
54A
100
AcDbEntity
   8
MAIN
   6
CONTINUOUS
  62
      7
100
AcDbVertex
100
AcDb2dVertex
  10
230.095107
  20
135.65321
  30
0.0
   0
SEQEND
   5
54B
100
AcDbEntity
   8
MAIN
   6
CONTINUOUS
   0
POLYLINE
   5
54C
100
AcDbEntity
   8
MAIN
   6
CONTINUOUS
  62
      7
100
AcDb2dPolyline
  66
      1
  10
0.0
  20
0.0
  30
0.0
  70
      1
  75
      5
   0
VERTEX
   5
54D
100
AcDbEntity
   8
MAIN
   6
CONTINUOUS
  62
      7
100
AcDbVertex
100
AcDb2dVertex
  10
230.095107
  20
135.65321
  30
0.0
   0
VERTEX
   5
54E
100
AcDbEntity
   8
MAIN
   6
CONTINUOUS
  62
      7
100
AcDbVertex
100
AcDb2dVertex
  10
230.040977
  20
135.68446
  30
0.0
   0
VERTEX
   5
54F
100
AcDbEntity
   8
MAIN
   6
CONTINUOUS
  62
      7
100
AcDbVertex
100
AcDb2dVertex
  10
230.486847
  20
135.68446
  30
0.0
   0
VERTEX
   5
550
100
AcDbEntity
   8
MAIN
   6
CONTINUOUS
  62
      7
100
AcDbVertex
100
AcDb2dVertex
  10
230.095097
  20
135.65321
  30
0.0
   0
SEQEND
   5
551
100
AcDbEntity
   8
MAIN
   6
CONTINUOUS
   0
LINE
   5
552
100
AcDbEntity
   8
MAIN
   6
CONTINUOUS
  62
      5
100
AcDbLine
  10
231.003887
  20
135.71571
  30
0.0
  11
235.081077
  21
135.71571
  31
0.0
   0
LINE
   5
553
100
AcDbEntity
   8
MAIN
   6
CONTINUOUS
  62
      5
100
AcDbLine
  10
230.912137
  20
131.96571
  30
0.0
  11
235.081077
  21
131.96571
  31
0.0
   0
LINE
   5
554
100
AcDbEntity
   8
MAIN
   6
CONTINUOUS
  62
      5
100
AcDbLine
  10
234.831077
  20
135.84071
  30
0.0
  11
234.831077
  21
135.71571
  31
0.0
   0
LINE
   5
555
100
AcDbEntity
   8
MAIN
   6
CONTINUOUS
  62
      5
100
AcDbLine
  10
234.831077
  20
131.96571
  30
0.0
  11
234.831077
  21
131.84071
  31
0.0
   0
LINE
   5
557
100
AcDbEntity
   8
MAIN
  62
      5
100
AcDbLine
  10
234.919467
  20
135.62732
  30
0.0
  11
234.742687
  21
135.8041
  31
0.0
   0
LINE
   5
558
100
AcDbEntity
   8
MAIN
  62
      5
100
AcDbLine
  10
234.742687
  20
132.0541
  30
0.0
  11
234.919467
  21
131.87732
  31
0.0
   0
LINE
   5
556
100
AcDbEntity
   8
MAIN
   6
CONTINUOUS
  62
      5
100
AcDbLine
  10
234.831077
  20
135.71571
  30
0.0
  11
234.831077
  21
131.96571
  31
0.0
   0
INSERT
   5
559
100
AcDbEntity
   8
MAIN
100
AcDbBlockReference
   2
*G49
  10
206.879887
  20
145.25827
  30
0.0
   0
LINE
   5
55A
100
AcDbEntity
   8
MAIN
   6
CONTINUOUS
  62
      5
100
AcDbLine
  10
227.362147
  20
140.96571
  30
0.0
  11
236.681077
  21
140.96571
  31
0.0
   0
LINE
   5
55B
100
AcDbEntity
   8
MAIN
   6
CONTINUOUS
  62
      5
100
AcDbLine
  10
227.362147
  20
131.96571
  30
0.0
  11
236.681077
  21
131.96571
  31
0.0
   0
LINE
   5
55C
100
AcDbEntity
   8
MAIN
   6
CONTINUOUS
  62
      5
100
AcDbLine
  10
236.431077
  20
141.09071
  30
0.0
  11
236.431077
  21
140.96571
  31
0.0
   0
LINE
   5
55D
100
AcDbEntity
   8
MAIN
   6
CONTINUOUS
  62
      5
100
AcDbLine
  10
236.431077
  20
131.96571
  30
0.0
  11
236.431077
  21
131.84071
  31
0.0
   0
LINE
   5
55F
100
AcDbEntity
   8
MAIN
  62
      5
100
AcDbLine
  10
236.519467
  20
140.87732
  30
0.0
  11
236.342687
  21
141.0541
  31
0.0
   0
LINE
   5
560
100
AcDbEntity
   8
MAIN
  62
      5
100
AcDbLine
  10
236.342687
  20
132.0541
  30
0.0
  11
236.519467
  21
131.87732
  31
0.0
   0
LINE
   5
55E
100
AcDbEntity
   8
MAIN
   6
CONTINUOUS
  62
      5
100
AcDbLine
  10
236.431077
  20
140.96571
  30
0.0
  11
236.431077
  21
131.96571
  31
0.0
   0
INSERT
   5
561
100
AcDbEntity
   8
MAIN
100
AcDbBlockReference
   2
*G50
  10
206.879887
  20
145.25827
  30
0.0
   0
LINE
   5
562
100
AcDbEntity
   8
MAIN
   6
CONTINUOUS
  62
      5
100
AcDbLine
  10
225.737147
  20
131.84071
  30
0.0
  11
225.737147
  21
129.26571
  31
0.0
   0
LINE
   5
563
100
AcDbEntity
   8
MAIN
   6
CONTINUOUS
  62
      5
100
AcDbLine
  10
227.237147
  20
131.84071
  30
0.0
  11
227.237147
  21
129.26571
  31
0.0
   0
LINE
   5
564
100
AcDbEntity
   8
MAIN
   6
CONTINUOUS
  62
      5
100
AcDbLine
  10
225.612147
  20
129.51571
  30
0.0
  11
225.737147
  21
129.51571
  31
0.0
   0
LINE
   5
565
100
AcDbEntity
   8
MAIN
   6
CONTINUOUS
  62
      5
100
AcDbLine
  10
227.237147
  20
129.51571
  30
0.0
  11
227.362147
  21
129.51571
  31
0.0
   0
LINE
   5
567
100
AcDbEntity
   8
MAIN
  62
      5
100
AcDbLine
  10
225.825537
  20
129.6041
  30
0.0
  11
225.648757
  21
129.42732
  31
0.0
   0
LINE
   5
568
100
AcDbEntity
   8
MAIN
  62
      5
100
AcDbLine
  10
227.148757
  20
129.42732
  30
0.0
  11
227.325537
  21
129.6041
  31
0.0
   0
LINE
   5
566
100
AcDbEntity
   8
MAIN
   6
CONTINUOUS
  62
      5
100
AcDbLine
  10
225.737147
  20
129.51571
  30
0.0
  11
227.237147
  21
129.51571
  31
0.0
   0
INSERT
   5
569
100
AcDbEntity
   8
MAIN
100
AcDbBlockReference
   2
*G51
  10
206.879887
  20
145.25827
  30
0.0
   0
LINE
   5
56A
100
AcDbEntity
   8
MAIN
   6
CONTINUOUS
  62
      5
100
AcDbLine
  10
225.612147
  20
131.96571
  30
0.0
  11
224.589057
  21
131.96571
  31
0.0
   0
LINE
   5
56B
100
AcDbEntity
   8
MAIN
   6
CONTINUOUS
  62
      5
100
AcDbLine
  10
225.612147
  20
132.21571
  30
0.0
  11
224.589057
  21
132.21571
  31
0.0
   0
LINE
   5
56C
100
AcDbEntity
   8
MAIN
   6
CONTINUOUS
  62
      5
100
AcDbLine
  10
224.839057
  20
131.84071
  30
0.0
  11
224.839057
  21
131.96571
  31
0.0
   0
LINE
   5
56D
100
AcDbEntity
   8
MAIN
   6
CONTINUOUS
  62
      5
100
AcDbLine
  10
224.839057
  20
132.21571
  30
0.0
  11
224.839057
  21
132.34071
  31
0.0
   0
LINE
   5
56E
100
AcDbEntity
   8
MAIN
   6
CONTINUOUS
  62
      5
100
AcDbLine
  10
224.839057
  20
131.96571
  30
0.0
  11
224.839057
  21
129.46572
  31
0.0
   0
LINE
   5
570
100
AcDbEntity
   8
MAIN
  62
      5
100
AcDbLine
  10
224.750667
  20
132.0541
  30
0.0
  11
224.927447
  21
131.87732
  31
0.0
   0
LINE
   5
571
100
AcDbEntity
   8
MAIN
  62
      5
100
AcDbLine
  10
224.927447
  20
132.12732
  30
0.0
  11
224.750667
  21
132.3041
  31
0.0
   0
LINE
   5
56F
100
AcDbEntity
   8
MAIN
   6
CONTINUOUS
  62
      5
100
AcDbLine
  10
224.839057
  20
131.96571
  30
0.0
  11
224.839057
  21
132.21571
  31
0.0
   0
INSERT
   5
572
100
AcDbEntity
   8
MAIN
100
AcDbBlockReference
   2
*G52
  10
206.879887
  20
145.25827
  30
0.0
   0
TEXT
   5
573
100
AcDbEntity
   8
MAIN
  62
      5
100
AcDbText
  10
208.121107
  20
136.00737
  30
0.0
  40
0.26666
   1
1" x 8 tpi B7 high tensile all thread.
  41
0.6
  11
208.121107
  21
136.00737
  31
0.0
100
AcDbText
  73
      3
   0
LINE
   5
574
100
AcDbEntity
   8
MAIN
   6
CONTINUOUS
  62
      5
100
AcDbLine
  10
213.381077
  20
135.81571
  30
0.0
  11
215.081077
  21
135.81571
  31
0.0
   0
SOLID
   5
576
100
AcDbEntity
   8
MAIN
  62
      5
100
AcDbTrace
  10
217.986897
  20
134.13803
  30
0.0
  11
217.738107
  21
134.20937
  31
0.0
  12
217.807107
  22
134.32421
  32
0.0
  13
217.807107
  23
134.32421
  33
0.0
   0
LINE
   5
575
100
AcDbEntity
   8
MAIN
   6
CONTINUOUS
  62
      5
100
AcDbLine
  10
215.081077
  20
135.81571
  30
0.0
  11
217.986897
  21
134.13803
  31
0.0
   0
TEXT
   5
577
100
AcDbEntity
   8
MAIN
  62
      7
100
AcDbText
  10
215.113077
  20
159.91571
  30
0.0
  40
0.8
   1
Swing Arms  : 1" x 4" Hot rolled A36 steel
  41
0.6
  11
215.113077
  21
159.91571
  31
0.0
100
AcDbText
  73
      3
   0
TEXT
   5
578
100
AcDbEntity
   8
MAIN
  62
      5
100
AcDbText
  10
215.815037
  20
139.84166
  30
0.0
  40
0.26666
   1
1-1/2" dia.Cold Rolled steel bar.
  41
0.6
  11
215.815037
  21
139.84166
  31
0.0
100
AcDbText
  73
      3
   0
LINE
   5
579
100
AcDbEntity
   8
MAIN
   6
CONTINUOUS
  62
      5
100
AcDbLine
  10
221.075007
  20
139.65
  30
0.0
  11
222.775007
  21
139.65
  31
0.0
   0
SOLID
   5
57B
100
AcDbEntity
   8
MAIN
  62
      5
100
AcDbTrace
  10
225.680827
  20
137.97232
  30
0.0
  11
225.432037
  21
138.04366
  31
0.0
  12
225.501037
  22
138.1585
  32
0.0
  13
225.501037
  23
138.1585
  33
0.0
   0
LINE
   5
57A
100
AcDbEntity
   8
MAIN
   6
CONTINUOUS
  62
      5
100
AcDbLine
  10
222.775007
  20
139.65
  30
0.0
  11
225.680827
  21
137.97232
  31
0.0
   0
CIRCLE
   5
57C
100
AcDbEntity
   8
MAIN
   6
CONTINUOUS
  62
      7
100
AcDbCircle
  10
180.820457
  20
139.35759
  30
0.0
  40
0.1875
   0
INSERT
   5
57D
100
AcDbEntity
   8
MAIN
100
AcDbBlockReference
   2
*G53
  10
206.879887
  20
145.25827
  30
0.0
   0
CIRCLE
   5
57E
100
AcDbEntity
   8
MAIN
   6
CONTINUOUS
  62
      7
100
AcDbCircle
  10
180.820457
  20
154.35759
  30
0.0
  40
0.1875
   0
INSERT
   5
57F
100
AcDbEntity
   8
MAIN
100
AcDbBlockReference
   2
*G54
  10
206.879887
  20
145.25827
  30
0.0
   0
CIRCLE
   5
580
100
AcDbEntity
   8
MAIN
   6
CONTINUOUS
  62
      7
100
AcDbCircle
  10
202.820457
  20
154.35759
  30
0.0
  40
0.1875
   0
INSERT
   5
581
100
AcDbEntity
   8
MAIN
100
AcDbBlockReference
   2
*G55
  10
206.879887
  20
145.25827
  30
0.0
   0
CIRCLE
   5
582
100
AcDbEntity
   8
MAIN
   6
CONTINUOUS
  62
      7
100
AcDbCircle
  10
202.820457
  20
139.35759
  30
0.0
  40
0.1875
   0
INSERT
   5
583
100
AcDbEntity
   8
MAIN
100
AcDbBlockReference
   2
*G56
  10
206.879887
  20
145.25827
  30
0.0
   0
LINE
   5
584
100
AcDbEntity
   8
MAIN
   6
CONTINUOUS
  62
      5
100
AcDbLine
  10
202.982837
  20
139.26384
  30
0.0
  11
205.418527
  21
137.85759
  31
0.0
   0
LINE
   5
585
100
AcDbEntity
   8
MAIN
   6
CONTINUOUS
  62
      5
100
AcDbLine
  10
205.418527
  20
137.85759
  30
0.0
  11
205.918527
  21
137.85759
  31
0.0
   0
SOLID
   5
587
100
AcDbEntity
   8
MAIN
  62
      5
100
AcDbTrace
  10
202.658077
  20
139.45134
  30
0.0
  11
202.908077
  21
139.38435
  31
0.0
  12
202.841087
  22
139.26833
  32
0.0
  13
202.841087
  23
139.26833
  33
0.0
   0
SOLID
   5
588
100
AcDbEntity
   8
MAIN
  62
      5
100
AcDbTrace
  10
202.982837
  20
139.26384
  30
0.0
  11
202.732837
  21
139.33083
  31
0.0
  12
202.799827
  22
139.44685
  32
0.0
  13
202.799827
  23
139.44685
  33
0.0
   0
LINE
   5
586
100
AcDbEntity
   8
MAIN
   6
CONTINUOUS
  62
      5
100
AcDbLine
  10
202.658077
  20
139.45134
  30
0.0
  11
202.982837
  21
139.26384
  31
0.0
   0
INSERT
   5
589
100
AcDbEntity
   8
MAIN
100
AcDbBlockReference
   2
*G57
  10
206.879887
  20
145.25827
  30
0.0
   0
LINE
   5
58A
100
AcDbEntity
   8
MAIN
   6
CONTINUOUS
  62
      5
100
AcDbLine
  10
202.820457
  20
154.73259
  30
0.0
  11
202.820457
  21
156.88
  31
0.0
   0
LINE
   5
58B
100
AcDbEntity
   8
MAIN
   6
CONTINUOUS
  62
      5
100
AcDbLine
  10
203.820457
  20
155.98259
  30
0.0
  11
203.820457
  21
156.88
  31
0.0
   0
LINE
   5
58C
100
AcDbEntity
   8
MAIN
   6
CONTINUOUS
  62
      5
100
AcDbLine
  10
202.695457
  20
156.63
  30
0.0
  11
202.820457
  21
156.63
  31
0.0
   0
LINE
   5
58D
100
AcDbEntity
   8
MAIN
   6
CONTINUOUS
  62
      5
100
AcDbLine
  10
203.820457
  20
156.63
  30
0.0
  11
203.945457
  21
156.63
  31
0.0
   0
LINE
   5
58F
100
AcDbEntity
   8
MAIN
  62
      5
100
AcDbLine
  10
202.908847
  20
156.71839
  30
0.0
  11
202.732067
  21
156.54161
  31
0.0
   0
LINE
   5
590
100
AcDbEntity
   8
MAIN
  62
      5
100
AcDbLine
  10
203.732067
  20
156.54161
  30
0.0
  11
203.908847
  21
156.71839
  31
0.0
   0
LINE
   5
58E
100
AcDbEntity
   8
MAIN
   6
CONTINUOUS
  62
      5
100
AcDbLine
  10
202.820457
  20
156.63
  30
0.0
  11
203.820457
  21
156.63
  31
0.0
   0
INSERT
   5
591
100
AcDbEntity
   8
MAIN
100
AcDbBlockReference
   2
*G58
  10
206.879887
  20
145.25827
  30
0.0
   0
LINE
   5
592
100
AcDbEntity
   8
MAIN
   6
CONTINUOUS
  62
      5
100
AcDbLine
  10
203.195457
  20
154.35759
  30
0.0
  11
205.485007
  21
154.35759
  31
0.0
   0
LINE
   5
593
100
AcDbEntity
   8
MAIN
   6
CONTINUOUS
  62
      5
100
AcDbLine
  10
203.945457
  20
155.85759
  30
0.0
  11
205.485007
  21
155.85759
  31
0.0
   0
LINE
   5
594
100
AcDbEntity
   8
MAIN
   6
CONTINUOUS
  62
      5
100
AcDbLine
  10
205.235007
  20
154.23259
  30
0.0
  11
205.235007
  21
154.35759
  31
0.0
   0
LINE
   5
595
100
AcDbEntity
   8
MAIN
   6
CONTINUOUS
  62
      5
100
AcDbLine
  10
205.235007
  20
155.85759
  30
0.0
  11
205.235007
  21
155.98259
  31
0.0
   0
LINE
   5
597
100
AcDbEntity
   8
MAIN
  62
      5
100
AcDbLine
  10
205.146617
  20
154.44598
  30
0.0
  11
205.323397
  21
154.2692
  31
0.0
   0
LINE
   5
598
100
AcDbEntity
   8
MAIN
  62
      5
100
AcDbLine
  10
205.323397
  20
155.7692
  30
0.0
  11
205.146617
  21
155.94598
  31
0.0
   0
LINE
   5
596
100
AcDbEntity
   8
MAIN
   6
CONTINUOUS
  62
      5
100
AcDbLine
  10
205.235007
  20
154.35759
  30
0.0
  11
205.235007
  21
155.85759
  31
0.0
   0
INSERT
   5
599
100
AcDbEntity
   8
MAIN
100
AcDbBlockReference
   2
*G59
  10
206.879887
  20
145.25827
  30
0.0
   0
TEXT
   5
59A
100
AcDbEntity
   8
MAIN
  62
      5
100
AcDbText
  10
177.275007
  20
166.65
  30
0.0
  40
1.6
   1
Tubing/Bar Roller  - Top View
  41
0.6
  11
177.275007
  21
166.65
  31
0.0
100
AcDbText
  73
      3
   0
ENDSEC
   0
SECTION
   2
OBJECTS
   0
DICTIONARY
   5
19
100
AcDbDictionary
   3
ACAD_GROUP
350
1A
   3
ACAD_MLINESTYLE
350
1B
   0
DICTIONARY
   5
1A
102
{ACAD_REACTORS
330
19
102
}
100
AcDbDictionary
   0
DICTIONARY
   5
1B
102
{ACAD_REACTORS
330
19
102
}
100
AcDbDictionary
   3
STANDARD
350
1C
   0
MLINESTYLE
   5
1C
102
{ACAD_REACTORS
330
1B
102
}
100
AcDbMlineStyle
   2
STANDARD
  70
      0
   3

  62
      0
  51
90.0
  52
90.0
  71
      2
  49
0.5
  62
    256
   6
BYLAYER
  49
-0.5
  62
    256
   6
BYLAYER
   0
ENDSEC
   0
EOF