   0
SECTION
   2
HEADER
   9
$ACADVER
   1
AC1014
   9
$ACADMAINTVER
  70
      0
   9
$DWGCODEPAGE
   3
ANSI_1252
   9
$INSBASE
  10
0.0
  20
0.0
  30
0.0
   9
$EXTMIN
  10
-45.3947
  20
-23.14042
  30
0.0
   9
$EXTMAX
  10
91.99418
  20
68.85958
  30
0.0
   9
$LIMMIN
  10
0.0
  20
0.0
   9
$LIMMAX
  10
0.0
  20
0.0
   9
$ORTHOMODE
  70
      0
   9
$REGENMODE
  70
      1
   9
$FILLMODE
  70
      1
   9
$QTEXTMODE
  70
      0
   9
$MIRRTEXT
  70
      1
   9
$DRAGMODE
  70
      2
   9
$LTSCALE
  40
4.0
   9
$OSMODE
  70
      0
   9
$ATTMODE
  70
      1
   9
$TEXTSIZE
  40
0.2
   9
$TRACEWID
  40
0.05
   9
$TEXTSTYLE
   7
STANDARD
   9
$CLAYER
   8
0
   9
$CELTYPE
   6
CONTINUOUS
   9
$CECOLOR
  62
    256
   9
$CELTSCALE
  40
1.0
   9
$DELOBJ
  70
      1
   9
$DISPSILH
  70
      0
   9
$DIMSCALE
  40
1.0
   9
$DIMASZ
  40
0.18
   9
$DIMEXO
  40
0.0625
   9
$DIMDLI
  40
0.38
   9
$DIMRND
  40
0.0
   9
$DIMDLE
  40
0.0
   9
$DIMEXE
  40
0.18
   9
$DIMTP
  40
0.0
   9
$DIMTM
  40
0.0
   9
$DIMTXT
  40
0.18
   9
$DIMCEN
  40
0.09
   9
$DIMTSZ
  40
0.0
   9
$DIMTOL
  70
      0
   9
$DIMLIM
  70
      0
   9
$DIMTIH
  70
      1
   9
$DIMTOH
  70
      1
   9
$DIMSE1
  70
      0
   9
$DIMSE2
  70
      0
   9
$DIMTAD
  70
      0
   9
$DIMZIN
  70
      0
   9
$DIMBLK
   1

   9
$DIMASO
  70
      1
   9
$DIMSHO
  70
      1
   9
$DIMPOST
   1

   9
$DIMAPOST
   1

   9
$DIMALT
  70
      0
   9
$DIMALTD
  70
      2
   9
$DIMALTF
  40
25.4
   9
$DIMLFAC
  40
1.0
   9
$DIMTOFL
  70
      0
   9
$DIMTVP
  40
0.0
   9
$DIMTIX
  70
      0
   9
$DIMSOXD
  70
      0
   9
$DIMSAH
  70
      0
   9
$DIMBLK1
   1

   9
$DIMBLK2
   1

   9
$DIMSTYLE
   2
STANDARD
   9
$DIMCLRD
  70
      0
   9
$DIMCLRE
  70
      0
   9
$DIMCLRT
  70
      0
   9
$DIMTFAC
  40
1.0
   9
$DIMGAP
  40
0.09
   9
$DIMJUST
  70
      0
   9
$DIMSD1
  70
      0
   9
$DIMSD2
  70
      0
   9
$DIMTOLJ
  70
      1
   9
$DIMTZIN
  70
      0
   9
$DIMALTZ
  70
      0
   9
$DIMALTTZ
  70
      0
   9
$DIMFIT
  70
      3
   9
$DIMUPT
  70
      0
   9
$DIMUNIT
  70
      2
   9
$DIMDEC
  70
      4
   9
$DIMTDEC
  70
      4
   9
$DIMALTU
  70
      2
   9
$DIMALTTD
  70
      2
   9
$DIMTXSTY
   7
STANDARD
   9
$DIMAUNIT
  70
      0
   9
$LUNITS
  70
      2
   9
$LUPREC
  70
      4
   9
$SKETCHINC
  40
0.1
   9
$FILLETRAD
  40
0.0
   9
$AUNITS
  70
      0
   9
$AUPREC
  70
      0
   9
$MENU
   1
acad
   9
$ELEVATION
  40
0.0
   9
$PELEVATION
  40
0.0
   9
$THICKNESS
  40
0.0
   9
$LIMCHECK
  70
      0
   9
$BLIPMODE
  70
      1
   9
$CHAMFERA
  40
0.0
   9
$CHAMFERB
  40
0.0
   9
$CHAMFERC
  40
0.0
   9
$CHAMFERD
  40
0.0
   9
$SKPOLY
  70
      0
   9
$TDCREATE
  40
2452107.873726852
   9
$TDUPDATE
  40
2452107.873726852
   9
$TDINDWG
  40
0.0000000000
   9
$TDUSRTIMER
  40
0.0000000000
   9
$USRTIMER
  70
      1
   9
$ANGBASE
  50
0.0
   9
$ANGDIR
  70
      0
   9
$PDMODE
  70
      0
   9
$PDSIZE
  40
0.0
   9
$PLINEWID
  40
0.0
   9
$COORDS
  70
      0
   9
$SPLFRAME
  70
      0
   9
$SPLINETYPE
  70
      6
   9
$SPLINESEGS
  70
      8
   9
$ATTDIA
  70
      0
   9
$ATTREQ
  70
      1
   9
$HANDLING
  70
      1
   9
$HANDSEED
   5
88D
   9
$SURFTAB1
  70
      6
   9
$SURFTAB2
  70
      6
   9
$SURFTYPE
  70
      6
   9
$SURFU
  70
      6
   9
$SURFV
  70
      6
   9
$UCSNAME
   2

   9
$UCSORG
  10
0.0
  20
0.0
  30
0.0
   9
$UCSXDIR
  10
1.0
  20
0.0
  30
0.0
   9
$UCSYDIR
  10
0.0
  20
1.0
  30
0.0
   9
$PUCSNAME
   2

   9
$PUCSORG
  10
0.0
  20
0.0
  30
0.0
   9
$PUCSXDIR
  10
1.0
  20
0.0
  30
0.0
   9
$PUCSYDIR
  10
0.0
  20
1.0
  30
0.0
   9
$USERI1
  70
      0
   9
$USERI2
  70
      0
   9
$USERI3
  70
      0
   9
$USERI4
  70
      0
   9
$USERI5
  70
      0
   9
$USERR1
  40
0.0
   9
$USERR2
  40
0.0
   9
$USERR3
  40
0.0
   9
$USERR4
  40
0.0
   9
$USERR5
  40
0.0
   9
$WORLDVIEW
  70
      1
   9
$SHADEDGE
  70
      3
   9
$SHADEDIF
  70
     70
   9
$TILEMODE
  70
      1
   9
$MAXACTVP
  70
     16
   9
$PINSBASE
  10
0.0
  20
0.0
  30
0.0
   9
$PLIMCHECK
  70
      0
   9
$PEXTMIN
  10
1.000000E+20
  20
1.000000E+20
  30
1.000000E+20
   9
$PEXTMAX
  10
-1.000000E+20
  20
-1.000000E+20
  30
-1.000000E+20
   9
$PLIMMIN
  10
0.0
  20
0.0
   9
$PLIMMAX
  10
12.0
  20
9.0
   9
$UNITMODE
  70
      0
   9
$VISRETAIN
  70
      0
   9
$PLINEGEN
  70
      1
   9
$PSLTSCALE
  70
      0
   9
$TREEDEPTH
  70
   3020
   9
$PICKSTYLE
  70
      1
   9
$CMLSTYLE
   2
STANDARD
   9
$CMLJUST
  70
      0
   9
$CMLSCALE
  40
1.0
   9
$PROXYGRAPHICS
  70
      0
   9
$MEASUREMENT
  70
      0
   0
ENDSEC
   0
SECTION
   2
CLASSES
   0
CLASS
   1
LWPOLYLINE
   2
AcDbPolyline
   3
"AutoCAD"
  90
         0
280
      0
281
      1
   0
CLASS
   1
IMAGE
   2
AcDbRasterImage
   3
ISM
  90
       127
280
      0
281
      1
   0
CLASS
   1
OLE2FRAME
   2
AcDbOle2Frame
   3
""
  90
         0
280
      0
281
      1
   0
CLASS
   1
HATCH
   2
AcDbHatch
   3
"ACAD_SEDONA"
  90
         0
280
      0
281
      1
   0
CLASS
   1
DICTIONARYVAR
   2
AcDbDictionaryVar
   3
"AutoCAD"
  90
         0
280
      0
281
      0
   0
CLASS
   1
RASTERVARIABLES
   2
AcDbRasterVariables
   3
ISM
  90
         0
280
      0
281
      0
   0
CLASS
   1
IMAGEDEF
   2
AcDbRasterImageDef
   3
ISM
  90
         0
280
      0
281
      0
   0
CLASS
   1
IMAGEDEF_REACTOR
   2
AcDbRasterImageDefReactor
   3
ISM
  90
         1
280
      0
281
      0
   0
CLASS
   1
IDBUFFER
   2
AcDbIdBuffer
   3
"Acad"
  90
         0
280
      0
281
      0
   0
CLASS
   1
SPATIAL_FILTER
   2
AcDbSpatialFilter
   3
"Acad"
  90
         0
280
      0
281
      0
   0
CLASS
   1
XRECORD
   2
AcDbXrecord
   3
"<Built In>"
  90
         0
280
      0
281
      0
   0
CLASS
   1
SORTENTSTABLE
   2
AcDbSortentsTable
   3
"AutoCAD"
  90
         0
280
      0
281
      0
   0
CLASS
   1
LAYER_INDEX
   2
AcDbLayerIndex
   3
"Acad"
  90
         0
280
      0
281
      0
   0
CLASS
   1
SPATIAL_INDEX
   2
AcDbSpatialIndex
   3
"Acad"
  90
         0
280
      0
281
      0
   0
CLASS
   1
OBJECT_PTR
   2
CAseDLPNTableRecord
   3
"ASE-LPNTableRecord"
  90
         1
280
      0
281
      0
   0
ENDSEC
   0
SECTION
   2
TABLES
   0
TABLE
   2
VPORT
   5
7
100
AcDbSymbolTable
  70
      1
   0
VPORT
   5
15
100
AcDbSymbolTableRecord
100
AcDbViewportTableRecord
   2
*ACTIVE
  70
      0
  10
0.0
  20
0.0
  11
1.0
  21
1.0
  12
23.29974
  22
22.85958
  13
0.0
  23
0.0
  14
1.0
  24
1.0
  15
0.0
  25
0.0
  16
0.0
  26
0.0
  36
1.0
  17
0.0
  27
0.0
  37
0.0
  40
92.0
  41
0.688564
  42
50.0
  43
0.0
  44
0.0
  50
0.0
  51
0.0
  71
      0
  72
    100
  73
      1
  74
      1
  75
      0
  76
      0
  77
      0
  78
      0
   0
ENDTAB
   0
TABLE
   2
LTYPE
   5
4
100
AcDbSymbolTable
  70
     13
   0
LTYPE
   5
11
100
AcDbSymbolTableRecord
100
AcDbLinetypeTableRecord
   2
BYBLOCK
  70
      0
   3

  72
     65
  73
      0
  40
0.0
   0
LTYPE
   5
12
100
AcDbSymbolTableRecord
100
AcDbLinetypeTableRecord
   2
BYLAYER
  70
      0
   3

  72
     65
  73
      0
  40
0.0
   0
LTYPE
   5
13
100
AcDbSymbolTableRecord
100
AcDbLinetypeTableRecord
   2
CONTINUOUS
  70
      0
   3
Solid line
  72
     65
  73
      0
  40
0.0
   0
LTYPE
   5
37
100
AcDbSymbolTableRecord
100
AcDbLinetypeTableRecord
   2
VECTORWORKS_DASH_01
  70
      0
   3
(unavailable)
  72
     65
  73
      2
  40
0.024948
  49
0.016632
  74
      0
  49
-0.008316
  74
      0
   0
LTYPE
   5
38
100
AcDbSymbolTableRecord
100
AcDbLinetypeTableRecord
   2
VECTORWORKS_DASH_02
  70
      0
   3
(unavailable)
  72
     65
  73
      2
  40
0.049911
  49
0.033279
  74
      0
  49
-0.016632
  74
      0
   0
LTYPE
   5
39
100
AcDbSymbolTableRecord
100
AcDbLinetypeTableRecord
   2
VECTORWORKS_DASH_03
  70
      0
   3
(unavailable)
  72
     65
  73
      4
  40
0.133087
  49
0.083191
  74
      0
  49
-0.016632
  74
      0
  49
0.016632
  74
      0
  49
-0.016632
  74
      0
   0
LTYPE
   5
3A
100
AcDbSymbolTableRecord
100
AcDbLinetypeTableRecord
   2
VECTORWORKS_DASH_04
  70
      0
   3
(unavailable)
  72
     65
  73
      6
  40
0.166351
  49
0.083191
  74
      0
  49
-0.016632
  74
      0
  49
0.016632
  74
      0
  49
-0.016632
  74
      0
  49
0.016632
  74
      0
  49
-0.016632
  74
      0
   0
LTYPE
   5
3B
100
AcDbSymbolTableRecord
100
AcDbLinetypeTableRecord
   2
VECTORWORKS_DASH_05
  70
      0
   3
(unavailable)
  72
     65
  73
      2
  40
0.016632
  49
0.000015
  74
      0
  49
-0.016617
  74
      0
   0
LTYPE
   5
3C
100
AcDbSymbolTableRecord
100
AcDbLinetypeTableRecord
   2
VECTORWORKS_DASH_06
  70
      0
   3
(unavailable)
  72
     65
  73
      4
  40
0.066544
  49
0.033279
  74
      0
  49
-0.016632
  74
      0
  49
0.000015
  74
      0
  49
-0.016617
  74
      0
   0
LTYPE
   5
3D
100
AcDbSymbolTableRecord
100
AcDbLinetypeTableRecord
   2
VECTORWORKS_DASH_07
  70
      0
   3
(unavailable)
  72
     65
  73
      6
  40
0.083176
  49
0.033279
  74
      0
  49
-0.016632
  74
      0
  49
0.000015
  74
      0
  49
-0.016617
  74
      0
  49
0.000015
  74
      0
  49
-0.016617
  74
      0
   0
LTYPE
   5
3E
100
AcDbSymbolTableRecord
100
AcDbLinetypeTableRecord
   2
VECTORWORKS_DASH_08
  70
      0
   3
(unavailable)
  72
     65
  73
      6
  40
0.116455
  49
0.033279
  74
      0
  49
-0.016632
  74
      0
  49
0.033279
  74
      0
  49
-0.016632
  74
      0
  49
0.000015
  74
      0
  49
-0.016617
  74
      0
   0
LTYPE
   5
3F
100
AcDbSymbolTableRecord
100
AcDbLinetypeTableRecord
   2
VECTORWORKS_DASH_09
  70
      0
   3
(unavailable)
  72
     65
  73
      4
  40
1.0
  49
0.75
  74
      0
  49
-0.055557
  74
      0
  49
0.138885
  74
      0
  49
-0.055557
  74
      0
   0
LTYPE
   5
40
100
AcDbSymbolTableRecord
100
AcDbLinetypeTableRecord
   2
VECTORWORKS_DASH_10
  70
      0
   3
(unavailable)
  72
     65
  73
      6
  40
1.1875
  49
0.75
  74
      0
  49
-0.055557
  74
      0
  49
0.138885
  74
      0
  49
-0.055557
  74
      0
  49
0.125
  74
      0
  49
-0.0625
  74
      0
   0
ENDTAB
   0
TABLE
   2
LAYER
   5
2
100
AcDbSymbolTable
  70
      5
   0
LAYER
   5
14
100
AcDbSymbolTableRecord
100
AcDbLayerTableRecord
   2
0
  70
      0
  62
      7
   6
CONTINUOUS
   0
LAYER
   5
41
100
AcDbSymbolTableRecord
100
AcDbLayerTableRecord
   2
MAIN
  70
     64
  62
      7
   6
CONTINUOUS
   0
LAYER
   5
42
100
AcDbSymbolTableRecord
100
AcDbLayerTableRecord
   2
TITLEBLOCK
  70
     64
  62
      7
   6
CONTINUOUS
   0
LAYER
   5
43
100
AcDbSymbolTableRecord
100
AcDbLayerTableRecord
   2
DIMENSIONS
  70
     64
  62
      7
   6
CONTINUOUS
   0
LAYER
   5
44
100
AcDbSymbolTableRecord
100
AcDbLayerTableRecord
   2
NOTES
  70
     64
  62
      7
   6
CONTINUOUS
   0
ENDTAB
   0
TABLE
   2
STYLE
   5
3
100
AcDbSymbolTable
  70
      1
   0
STYLE
   5
17
100
AcDbSymbolTableRecord
100
AcDbTextStyleTableRecord
   2
STANDARD
  70
      0
  40
0.0
  41
0.6
  50
0.0
  71
      0
  42
0.0
   3
txt
   4

   0
ENDTAB
   0
TABLE
   2
VIEW
   5
5
100
AcDbSymbolTable
  70
      0
   0
ENDTAB
   0
TABLE
   2
UCS
   5
6
100
AcDbSymbolTable
  70
      0
   0
ENDTAB
   0
TABLE
   2
APPID
   5
8
100
AcDbSymbolTable
  70
      1
   0
APPID
   5
16
100
AcDbSymbolTableRecord
100
AcDbRegAppTableRecord
   2
ACAD
  70
      0
   0
ENDTAB
   0
TABLE
   2
DIMSTYLE
   5
9
100
AcDbSymbolTable
  70
      1
   0
DIMSTYLE
105
18
100
AcDbSymbolTableRecord
100
AcDbDimStyleTableRecord
   2
STANDARD
  70
      0
   3

   4

   5

   6

   7

  40
1.0
  41
0.18
  42
0.0625
  43
0.38
  44
0.18
  45
0.0
  46
0.0
  47
0.0
  48
0.0
140
0.18
141
0.09
142
0.0
143
25.4
144
1.0
145
0.0
146
1.0
147
0.09
  71
      0
  72
      0
  73
      1
  74
      1
  75
      0
  76
      0
  77
      0
  78
      0
170
      0
171
      2
172
      0
173
      0
174
      0
175
      0
176
      0
177
      0
178
      0
270
      2
271
      4
272
      4
273
      2
274
      2
340
17
275
      0
280
      0
281
      0
282
      0
283
      1
284
      0
285
      0
286
      0
287
      0
288
      0
   0
ENDTAB
   0
TABLE
   2
BLOCK_RECORD
   5
1
100
AcDbSymbolTable
  70
     26
   0
BLOCK_RECORD
   5
A
100
AcDbSymbolTableRecord
100
AcDbBlockTableRecord
   2
*MODEL_SPACE
   0
BLOCK_RECORD
   5
B
100
AcDbSymbolTableRecord
100
AcDbBlockTableRecord
   2
*PAPER_SPACE
   0
BLOCK_RECORD
   5
1D
100
AcDbSymbolTableRecord
100
AcDbBlockTableRecord
   2
*G0
   0
BLOCK_RECORD
   5
1E
100
AcDbSymbolTableRecord
100
AcDbBlockTableRecord
   2
*G1
   0
BLOCK_RECORD
   5
1F
100
AcDbSymbolTableRecord
100
AcDbBlockTableRecord
   2
*G2
   0
BLOCK_RECORD
   5
20
100
AcDbSymbolTableRecord
100
AcDbBlockTableRecord
   2
*G3
   0
BLOCK_RECORD
   5
21
100
AcDbSymbolTableRecord
100
AcDbBlockTableRecord
   2
*G4
   0
BLOCK_RECORD
   5
22
100
AcDbSymbolTableRecord
100
AcDbBlockTableRecord
   2
*G5
   0
BLOCK_RECORD
   5
23
100
AcDbSymbolTableRecord
100
AcDbBlockTableRecord
   2
*G6
   0
BLOCK_RECORD
   5
24
100
AcDbSymbolTableRecord
100
AcDbBlockTableRecord
   2
*G7
   0
BLOCK_RECORD
   5
25
100
AcDbSymbolTableRecord
100
AcDbBlockTableRecord
   2
*G8
   0
BLOCK_RECORD
   5
26
100
AcDbSymbolTableRecord
100
AcDbBlockTableRecord
   2
*G9
   0
BLOCK_RECORD
   5
27
100
AcDbSymbolTableRecord
100
AcDbBlockTableRecord
   2
*G10
   0
BLOCK_RECORD
   5
28
100
AcDbSymbolTableRecord
100
AcDbBlockTableRecord
   2
*G11
   0
BLOCK_RECORD
   5
29
100
AcDbSymbolTableRecord
100
AcDbBlockTableRecord
   2
*G12
   0
BLOCK_RECORD
   5
2A
100
AcDbSymbolTableRecord
100
AcDbBlockTableRecord
   2
*G13
   0
BLOCK_RECORD
   5
2B
100
AcDbSymbolTableRecord
100
AcDbBlockTableRecord
   2
*G14
   0
BLOCK_RECORD
   5
2C
100
AcDbSymbolTableRecord
100
AcDbBlockTableRecord
   2
*G15
   0
BLOCK_RECORD
   5
2D
100
AcDbSymbolTableRecord
100
AcDbBlockTableRecord
   2
*G16
   0
BLOCK_RECORD
   5
2E
100
AcDbSymbolTableRecord
100
AcDbBlockTableRecord
   2
*G17
   0
BLOCK_RECORD
   5
2F
100
AcDbSymbolTableRecord
100
AcDbBlockTableRecord
   2
*G18
   0
BLOCK_RECORD
   5
30
100
AcDbSymbolTableRecord
100
AcDbBlockTableRecord
   2
*G19
   0
BLOCK_RECORD
   5
31
100
AcDbSymbolTableRecord
100
AcDbBlockTableRecord
   2
*G20
   0
BLOCK_RECORD
   5
32
100
AcDbSymbolTableRecord
100
AcDbBlockTableRecord
   2
*G21
   0
BLOCK_RECORD
   5
33
100
AcDbSymbolTableRecord
100
AcDbBlockTableRecord
   2
*G22
   0
BLOCK_RECORD
   5
34
100
AcDbSymbolTableRecord
100
AcDbBlockTableRecord
   2
*G23
   0
BLOCK_RECORD
   5
35
100
AcDbSymbolTableRecord
100
AcDbBlockTableRecord
   2
*G24
   0
BLOCK_RECORD
   5
36
100
AcDbSymbolTableRecord
100
AcDbBlockTableRecord
   2
*G25
   0
ENDTAB
   0
ENDSEC
   0
SECTION
   2
BLOCKS
   0
BLOCK
   5
D
100
AcDbEntity
   8
0
100
AcDbBlockBegin
   2
*MODEL_SPACE
  70
      0
  10
0.0
  20
0.0
  30
0.0
   3
*MODEL_SPACE
   1

   0
ENDBLK
   5
E
100
AcDbEntity
   8
0
100
AcDbBlockEnd
   0
BLOCK
   5
F
100
AcDbEntity
  67
      1
   8
0
100
AcDbBlockBegin
   2
*PAPER_SPACE
  70
      0
  10
0.0
  20
0.0
  30
0.0
   3
*PAPER_SPACE
   1

   0
ENDBLK
   5
10
100
AcDbEntity
  67
      1
   8
0
100
AcDbBlockEnd
   0
BLOCK
   5
45
100
AcDbEntity
   8
TITLEBLOCK
100
AcDbBlockBegin
   2
*G0
  70
      1
  10
0.0
  20
0.0
  30
0.0
   3

   1

   0
LINE
   5
46
100
AcDbEntity
   8
TITLEBLOCK
   6
CONTINUOUS
  62
      1
100
AcDbLine
  10
-31.16516
  20
8.49236
  30
0.0
  11
-32.16516
  21
8.49236
  31
0.0
   0
LINE
   5
47
100
AcDbEntity
   8
TITLEBLOCK
   6
CONTINUOUS
  62
      1
100
AcDbLine
  10
-31.66516
  20
7.99236
  30
0.0
  11
-31.66516
  21
8.99236
  31
0.0
   0
ENDBLK
   5
48
100
AcDbEntity
   8
TITLEBLOCK
100
AcDbBlockEnd
   0
BLOCK
   5
49
100
AcDbEntity
   8
TITLEBLOCK
100
AcDbBlockBegin
   2
*G1
  70
      1
  10
0.0
  20
0.0
  30
0.0
   3

   1

   0
LINE
   5
4A
100
AcDbEntity
   8
TITLEBLOCK
   6
CONTINUOUS
  62
      1
100
AcDbLine
  10
-28.65016
  20
-15.85958
  30
0.0
  11
-27.65016
  21
-15.85958
  31
0.0
   0
LINE
   5
4B
100
AcDbEntity
   8
TITLEBLOCK
   6
CONTINUOUS
  62
      1
100
AcDbLine
  10
-28.15016
  20
-16.35958
  30
0.0
  11
-28.15016
  21
-15.35958
  31
0.0
   0
ENDBLK
   5
4C
100
AcDbEntity
   8
TITLEBLOCK
100
AcDbBlockEnd
   0
BLOCK
   5
4D
100
AcDbEntity
   8
TITLEBLOCK
100
AcDbBlockBegin
   2
*G2
  70
      1
  10
0.0
  20
0.0
  30
0.0
   3

   1

   0
LINE
   5
4E
100
AcDbEntity
   8
TITLEBLOCK
   6
CONTINUOUS
  62
      1
100
AcDbLine
  10
-29.65016
  20
-15.85958
  30
0.0
  11
-28.65016
  21
-15.85958
  31
0.0
   0
LINE
   5
4F
100
AcDbEntity
   8
TITLEBLOCK
   6
CONTINUOUS
  62
      1
100
AcDbLine
  10
-29.15016
  20
-16.35958
  30
0.0
  11
-29.15016
  21
-15.35958
  31
0.0
   0
ENDBLK
   5
50
100
AcDbEntity
   8
TITLEBLOCK
100
AcDbBlockEnd
   0
BLOCK
   5
51
100
AcDbEntity
   8
TITLEBLOCK
100
AcDbBlockBegin
   2
*G3
  70
      1
  10
0.0
  20
0.0
  30
0.0
   3

   1

   0
LINE
   5
52
100
AcDbEntity
   8
TITLEBLOCK
   6
CONTINUOUS
  62
      1
100
AcDbLine
  10
-30.65016
  20
-15.85958
  30
0.0
  11
-29.65016
  21
-15.85958
  31
0.0
   0
LINE
   5
53
100
AcDbEntity
   8
TITLEBLOCK
   6
CONTINUOUS
  62
      1
100
AcDbLine
  10
-30.15016
  20
-16.35958
  30
0.0
  11
-30.15016
  21
-15.35958
  31
0.0
   0
ENDBLK
   5
54
100
AcDbEntity
   8
TITLEBLOCK
100
AcDbBlockEnd
   0
BLOCK
   5
55
100
AcDbEntity
   8
TITLEBLOCK
100
AcDbBlockBegin
   2
*G4
  70
      1
  10
0.0
  20
0.0
  30
0.0
   3

   1

   0
LINE
   5
56
100
AcDbEntity
   8
TITLEBLOCK
   6
CONTINUOUS
  62
      1
100
AcDbLine
  10
-31.65016
  20
-15.85958
  30
0.0
  11
-30.65016
  21
-15.85958
  31
0.0
   0
LINE
   5
57
100
AcDbEntity
   8
TITLEBLOCK
   6
CONTINUOUS
  62
      1
100
AcDbLine
  10
-31.15016
  20
-16.35958
  30
0.0
  11
-31.15016
  21
-15.35958
  31
0.0
   0
ENDBLK
   5
58
100
AcDbEntity
   8
TITLEBLOCK
100
AcDbBlockEnd
   0
BLOCK
   5
59
100
AcDbEntity
   8
TITLEBLOCK
100
AcDbBlockBegin
   2
*G5
  70
      1
  10
0.0
  20
0.0
  30
0.0
   3

   1

   0
LINE
   5
5A
100
AcDbEntity
   8
TITLEBLOCK
   6
CONTINUOUS
  62
      1
100
AcDbLine
  10
-32.65016
  20
-15.85958
  30
0.0
  11
-31.65016
  21
-15.85958
  31
0.0
   0
LINE
   5
5B
100
AcDbEntity
   8
TITLEBLOCK
   6
CONTINUOUS
  62
      1
100
AcDbLine
  10
-32.15016
  20
-16.35958
  30
0.0
  11
-32.15016
  21
-15.35958
  31
0.0
   0
ENDBLK
   5
5C
100
AcDbEntity
   8
TITLEBLOCK
100
AcDbBlockEnd
   0
BLOCK
   5
5D
100
AcDbEntity
   8
TITLEBLOCK
100
AcDbBlockBegin
   2
*G6
  70
      1
  10
0.0
  20
0.0
  30
0.0
   3

   1

   0
LINE
   5
5E
100
AcDbEntity
   8
TITLEBLOCK
   6
CONTINUOUS
  62
      1
100
AcDbLine
  10
-33.65016
  20
-15.85958
  30
0.0
  11
-32.65016
  21
-15.85958
  31
0.0
   0
LINE
   5
5F
100
AcDbEntity
   8
TITLEBLOCK
   6
CONTINUOUS
  62
      1
100
AcDbLine
  10
-33.15016
  20
-16.35958
  30
0.0
  11
-33.15016
  21
-15.35958
  31
0.0
   0
ENDBLK
   5
60
100
AcDbEntity
   8
TITLEBLOCK
100
AcDbBlockEnd
   0
BLOCK
   5
61
100
AcDbEntity
   8
TITLEBLOCK
100
AcDbBlockBegin
   2
*G7
  70
      1
  10
0.0
  20
0.0
  30
0.0
   3

   1

   0
LINE
   5
62
100
AcDbEntity
   8
TITLEBLOCK
   6
CONTINUOUS
  62
      1
100
AcDbLine
  10
-34.65016
  20
-15.85958
  30
0.0
  11
-33.65016
  21
-15.85958
  31
0.0
   0
LINE
   5
63
100
AcDbEntity
   8
TITLEBLOCK
   6
CONTINUOUS
  62
      1
100
AcDbLine
  10
-34.15016
  20
-16.35958
  30
0.0
  11
-34.15016
  21
-15.35958
  31
0.0
   0
ENDBLK
   5
64
100
AcDbEntity
   8
TITLEBLOCK
100
AcDbBlockEnd
   0
BLOCK
   5
65
100
AcDbEntity
   8
TITLEBLOCK
100
AcDbBlockBegin
   2
*G8
  70
      1
  10
0.0
  20
0.0
  30
0.0
   3

   1

   0
LINE
   5
66
100
AcDbEntity
   8
TITLEBLOCK
   6
CONTINUOUS
  62
      1
100
AcDbLine
  10
-35.65016
  20
-15.85958
  30
0.0
  11
-34.65016
  21
-15.85958
  31
0.0
   0
LINE
   5
67
100
AcDbEntity
   8
TITLEBLOCK
   6
CONTINUOUS
  62
      1
100
AcDbLine
  10
-35.15016
  20
-16.35958
  30
0.0
  11
-35.15016
  21
-15.35958
  31
0.0
   0
ENDBLK
   5
68
100
AcDbEntity
   8
TITLEBLOCK
100
AcDbBlockEnd
   0
BLOCK
   5
69
100
AcDbEntity
   8
TITLEBLOCK
100
AcDbBlockBegin
   2
*G9
  70
      1
  10
0.0
  20
0.0
  30
0.0
   3

   1

   0
LINE
   5
6A
100
AcDbEntity
   8
TITLEBLOCK
   6
CONTINUOUS
  62
      1
100
AcDbLine
  10
-36.65016
  20
-15.85958
  30
0.0
  11
-35.65016
  21
-15.85958
  31
0.0
   0
LINE
   5
6B
100
AcDbEntity
   8
TITLEBLOCK
   6
CONTINUOUS
  62
      1
100
AcDbLine
  10
-36.15016
  20
-16.35958
  30
0.0
  11
-36.15016
  21
-15.35958
  31
0.0
   0
ENDBLK
   5
6C
100
AcDbEntity
   8
TITLEBLOCK
100
AcDbBlockEnd
   0
BLOCK
   5
6D
100
AcDbEntity
   8
TITLEBLOCK
100
AcDbBlockBegin
   2
*G10
  70
      1
  10
0.0
  20
0.0
  30
0.0
   3

   1

   0
LINE
   5
6E
100
AcDbEntity
   8
TITLEBLOCK
   6
CONTINUOUS
  62
      1
100
AcDbLine
  10
-37.65016
  20
-15.85958
  30
0.0
  11
-36.65016
  21
-15.85958
  31
0.0
   0
LINE
   5
6F
100
AcDbEntity
   8
TITLEBLOCK
   6
CONTINUOUS
  62
      1
100
AcDbLine
  10
-37.15016
  20
-16.35958
  30
0.0
  11
-37.15016
  21
-15.35958
  31
0.0
   0
ENDBLK
   5
70
100
AcDbEntity
   8
TITLEBLOCK
100
AcDbBlockEnd
   0
BLOCK
   5
71
100
AcDbEntity
   8
TITLEBLOCK
100
AcDbBlockBegin
   2
*G11
  70
      1
  10
0.0
  20
0.0
  30
0.0
   3

   1

   0
LINE
   5
72
100
AcDbEntity
   8
TITLEBLOCK
   6
CONTINUOUS
  62
      1
100
AcDbLine
  10
-38.65016
  20
-15.85958
  30
0.0
  11
-37.65016
  21
-15.85958
  31
0.0
   0
LINE
   5
73
100
AcDbEntity
   8
TITLEBLOCK
   6
CONTINUOUS
  62
      1
100
AcDbLine
  10
-38.15016
  20
-16.35958
  30
0.0
  11
-38.15016
  21
-15.35958
  31
0.0
   0
ENDBLK
   5
74
100
AcDbEntity
   8
TITLEBLOCK
100
AcDbBlockEnd
   0
BLOCK
   5
75
100
AcDbEntity
   8
TITLEBLOCK
100
AcDbBlockBegin
   2
*G12
  70
      1
  10
0.0
  20
0.0
  30
0.0
   3

   1

   0
LINE
   5
76
100
AcDbEntity
   8
TITLEBLOCK
   6
CONTINUOUS
  62
      1
100
AcDbLine
  10
-39.65016
  20
-15.85958
  30
0.0
  11
-38.65016
  21
-15.85958
  31
0.0
   0
LINE
   5
77
100
AcDbEntity
   8
TITLEBLOCK
   6
CONTINUOUS
  62
      1
100
AcDbLine
  10
-39.15016
  20
-16.35958
  30
0.0
  11
-39.15016
  21
-15.35958
  31
0.0
   0
ENDBLK
   5
78
100
AcDbEntity
   8
TITLEBLOCK
100
AcDbBlockEnd
   0
BLOCK
   5
79
100
AcDbEntity
   8
TITLEBLOCK
100
AcDbBlockBegin
   2
*G13
  70
      1
  10
0.0
  20
0.0
  30
0.0
   3

   1

   0
LWPOLYLINE
   5
7A
100
AcDbEntity
   8
TITLEBLOCK
   6
CONTINUOUS
  62
      1
100
AcDbPolyline
  90
         5
  70
    129
  10
12.08262
  20
-14.85958
  10
12.33262
  20
-14.85958
  10
12.33262
  20
-16.85958
  10
12.08262
  20
-16.85958
  10
12.08262
  20
-14.85958
   0
LWPOLYLINE
   5
7B
100
AcDbEntity
   8
TITLEBLOCK
   6
CONTINUOUS
  62
      1
100
AcDbPolyline
  90
         5
  70
    129
  10
10.58262
  20
-14.85958
  10
10.83262
  20
-14.85958
  10
10.83262
  20
-16.85958
  10
10.58262
  20
-16.85958
  10
10.58262
  20
-14.85958
   0
LWPOLYLINE
   5
7C
100
AcDbEntity
   8
TITLEBLOCK
   6
CONTINUOUS
  62
      1
100
AcDbPolyline
  90
         5
  70
    129
  10
10.45762
  20
-16.85958
  10
12.45762
  20
-16.85958
  10
12.45762
  20
-17.10958
  10
10.45762
  20
-17.10958
  10
10.45762
  20
-16.85958
   0
ENDBLK
   5
7D
100
AcDbEntity
   8
TITLEBLOCK
100
AcDbBlockEnd
   0
BLOCK
   5
7E
100
AcDbEntity
   8
TITLEBLOCK
100
AcDbBlockBegin
   2
*G14
  70
      1
  10
0.0
  20
0.0
  30
0.0
   3

   1

   0
LINE
   5
7F
100
AcDbEntity
   8
TITLEBLOCK
   6
CONTINUOUS
  62
      1
100
AcDbLine
  10
10.95762
  20
8.64042
  30
0.0
  11
11.95762
  21
8.64042
  31
0.0
   0
LINE
   5
80
100
AcDbEntity
   8
TITLEBLOCK
   6
CONTINUOUS
  62
      1
100
AcDbLine
  10
11.45762
  20
8.14042
  30
0.0
  11
11.45762
  21
9.14042
  31
0.0
   0
ENDBLK
   5
81
100
AcDbEntity
   8
TITLEBLOCK
100
AcDbBlockEnd
   0
BLOCK
   5
82
100
AcDbEntity
   8
TITLEBLOCK
100
AcDbBlockBegin
   2
*G15
  70
      1
  10
0.0
  20
0.0
  30
0.0
   3

   1

   0
TEXT
   5
83
100
AcDbEntity
   8
TITLEBLOCK
  62
      5
100
AcDbText
  10
9.1843
  20
31.33625
  30
0.0
  40
1.06666
   1
24.000"
  41
0.6
  11
9.1843
  21
31.33625
  31
0.0
100
AcDbText
  73
      3
   0
ENDBLK
   5
84
100
AcDbEntity
   8
TITLEBLOCK
100
AcDbBlockEnd
   0
BLOCK
   5
85
100
AcDbEntity
   8
TITLEBLOCK
100
AcDbBlockBegin
   2
*G16
  70
      1
  10
0.0
  20
0.0
  30
0.0
   3

   1

   0
TEXT
   5
86
100
AcDbEntity
   8
TITLEBLOCK
  62
      5
100
AcDbText
  10
15.1843
  20
24.13625
  30
0.0
  40
1.06666
   1
12.000"
  41
0.6
  11
15.1843
  21
24.13625
  31
0.0
100
AcDbText
  73
      3
   0
ENDBLK
   5
87
100
AcDbEntity
   8
TITLEBLOCK
100
AcDbBlockEnd
   0
BLOCK
   5
88
100
AcDbEntity
   8
TITLEBLOCK
100
AcDbBlockBegin
   2
*G17
  70
      1
  10
0.0
  20
0.0
  30
0.0
   3

   1

   0
TEXT
   5
89
100
AcDbEntity
   8
TITLEBLOCK
  62
      5
100
AcDbText
  10
39.76693
  20
-8.1329
  30
0.0
  40
1.06666
   1
34.000"
  50
90.0
  41
0.6
  11
39.76693
  21
-8.1329
  31
0.0
100
AcDbText
  73
      3
   0
ENDBLK
   5
8A
100
AcDbEntity
   8
TITLEBLOCK
100
AcDbBlockEnd
   0
BLOCK
   5
8B
100
AcDbEntity
   8
TITLEBLOCK
100
AcDbBlockBegin
   2
*G18
  70
      1
  10
0.0
  20
0.0
  30
0.0
   3

   1

   0
TEXT
   5
8C
100
AcDbEntity
   8
TITLEBLOCK
  62
      5
100
AcDbText
  10
32.56693
  20
-8.6329
  30
0.0
  40
1.06666
   1
33.000"
  50
90.0
  41
0.6
  11
32.56693
  21
-8.6329
  31
0.0
100
AcDbText
  73
      3
   0
ENDBLK
   5
8D
100
AcDbEntity
   8
TITLEBLOCK
100
AcDbBlockEnd
   0
BLOCK
   5
8E
100
AcDbEntity
   8
TITLEBLOCK
100
AcDbBlockBegin
   2
*G19
  70
      1
  10
0.0
  20
0.0
  30
0.0
   3

   1

   0
TEXT
   5
8F
100
AcDbEntity
   8
TITLEBLOCK
  62
      5
100
AcDbText
  10
26.56693
  20
-21.75957
  30
0.0
  40
1.06666
   1
6.000"
  50
90.0
  41
0.6
  11
26.56693
  21
-21.75957
  31
0.0
100
AcDbText
  73
      3
   0
ENDBLK
   5
90
100
AcDbEntity
   8
TITLEBLOCK
100
AcDbBlockEnd
   0
BLOCK
   5
91
100
AcDbEntity
   8
TITLEBLOCK
100
AcDbBlockBegin
   2
*G20
  70
      1
  10
0.0
  20
0.0
  30
0.0
   3

   1

   0
TEXT
   5
92
100
AcDbEntity
   8
TITLEBLOCK
  62
      5
100
AcDbText
  10
28.16693
  20
-12.1329
  30
0.0
  40
1.06666
   1
26.000"
  50
90.0
  41
0.6
  11
28.16693
  21
-12.1329
  31
0.0
100
AcDbText
  73
      3
   0
ENDBLK
   5
93
100
AcDbEntity
   8
TITLEBLOCK
100
AcDbBlockEnd
   0
BLOCK
   5
94
100
AcDbEntity
   8
TITLEBLOCK
100
AcDbBlockBegin
   2
*G21
  70
      1
  10
0.0
  20
0.0
  30
0.0
   3

   1

   0
TEXT
   5
95
100
AcDbEntity
   8
TITLEBLOCK
  62
      5
100
AcDbText
  10
-9.43307
  20
2.24043
  30
0.0
  40
1.06666
   1
2.000"
  50
90.0
  41
0.6
  11
-9.43307
  21
2.24043
  31
0.0
100
AcDbText
  73
      3
   0
ENDBLK
   5
96
100
AcDbEntity
   8
TITLEBLOCK
100
AcDbBlockEnd
   0
BLOCK
   5
97
100
AcDbEntity
   8
TITLEBLOCK
100
AcDbBlockBegin
   2
*G22
  70
      1
  10
0.0
  20
0.0
  30
0.0
   3

   1

   0
TEXT
   5
98
100
AcDbEntity
   8
TITLEBLOCK
  62
      5
100
AcDbText
  10
-38.073
  20
-29.46375
  30
0.0
  40
1.06666
   1
22.000"
  41
0.6
  11
-38.073
  21
-29.46375
  31
0.0
100
AcDbText
  73
      3
   0
ENDBLK
   5
99
100
AcDbEntity
   8
TITLEBLOCK
100
AcDbBlockEnd
   0
BLOCK
   5
9A
100
AcDbEntity
   8
TITLEBLOCK
100
AcDbBlockBegin
   2
*G23
  70
      1
  10
0.0
  20
0.0
  30
0.0
   3

   1

   0
TEXT
   5
9B
100
AcDbEntity
   8
TITLEBLOCK
  62
      5
100
AcDbText
  10
-38.073
  20
27.53625
  30
0.0
  40
1.06666
   1
18.000"
  41
0.6
  11
-38.073
  21
27.53625
  31
0.0
100
AcDbText
  73
      3
   0
ENDBLK
   5
9C
100
AcDbEntity
   8
TITLEBLOCK
100
AcDbBlockEnd
   0
BLOCK
   5
9D
100
AcDbEntity
   8
TITLEBLOCK
100
AcDbBlockBegin
   2
*G24
  70
      1
  10
0.0
  20
0.0
  30
0.0
   3

   1

   0
TEXT
   5
9E
100
AcDbEntity
   8
TITLEBLOCK
  62
      5
100
AcDbText
  10
-55.83307
  20
-22.75957
  30
0.0
  40
1.06666
   1
4.000"
  50
90.0
  41
0.6
  11
-55.83307
  21
-22.75957
  31
0.0
100
AcDbText
  73
      3
   0
ENDBLK
   5
9F
100
AcDbEntity
   8
TITLEBLOCK
100
AcDbBlockEnd
   0
BLOCK
   5
A0
100
AcDbEntity
   8
TITLEBLOCK
100
AcDbBlockBegin
   2
*G25
  70
      1
  10
0.0
  20
0.0
  30
0.0
   3

   1

   0
TEXT
   5
A1
100
AcDbEntity
   8
TITLEBLOCK
  62
      5
100
AcDbText
  10
-61.03307
  20
-12.1329
  30
0.0
  40
1.06666
   1
26.000"
  50
90.0
  41
0.6
  11
-61.03307
  21
-12.1329
  31
0.0
100
AcDbText
  73
      3
   0
ENDBLK
   5
A2
100
AcDbEntity
   8
TITLEBLOCK
100
AcDbBlockEnd
   0
ENDSEC
   0
SECTION
   2
ENTITIES
   0
LINE
   5
A3
100
AcDbEntity
   8
TITLEBLOCK
   6
CONTINUOUS
  62
    254
100
AcDbLine
  10
-32.19987
  20
0.0
  30
0.0
  11
70.85
  21
0.0
  31
0.0
   0
POLYLINE
   5
A4
100
AcDbEntity
   8
TITLEBLOCK
   6
CONTINUOUS
  62
      9
100
AcDb2dPolyline
  66
      1
  10
0.0
  20
0.0
  30
0.0
  75
      5
   0
VERTEX
   5
A5
100
AcDbEntity
   8
TITLEBLOCK
   6
CONTINUOUS
  62
      9
100
AcDbVertex
100
AcDb2dVertex
  10
-7.89667
  20
30.85198
  30
0.0
   0
VERTEX
   5
A6
100
AcDbEntity
   8
TITLEBLOCK
   6
CONTINUOUS
  62
      9
100
AcDbVertex
100
AcDb2dVertex
  10
-7.77167
  20
31.05198
  30
0.0
   0
VERTEX
   5
A7
100
AcDbEntity
   8
TITLEBLOCK
   6
CONTINUOUS
  62
      9
100
AcDbVertex
100
AcDb2dVertex
  10
-7.77167
  20
31.65198
  30
0.0
   0
VERTEX
   5
A8
100
AcDbEntity
   8
TITLEBLOCK
   6
CONTINUOUS
  62
      9
100
AcDbVertex
100
AcDb2dVertex
  10
-7.86542
  20
31.79785
  30
0.0
   0
VERTEX
   5
A9
100
AcDbEntity
   8
TITLEBLOCK
   6
CONTINUOUS
  62
      9
100
AcDbVertex
100
AcDb2dVertex
  10
-7.89667
  20
31.74372
  30
0.0
   0
SEQEND
   5
AA
100
AcDbEntity
   8
TITLEBLOCK
   6
CONTINUOUS
   0
POLYLINE
   5
AB
100
AcDbEntity
   8
TITLEBLOCK
   6
CONTINUOUS
  62
      9
100
AcDb2dPolyline
  66
      1
  10
0.0
  20
0.0
  30
0.0
  75
      5
   0
VERTEX
   5
AC
100
AcDbEntity
   8
TITLEBLOCK
   6
CONTINUOUS
  62
      9
100
AcDbVertex
100
AcDb2dVertex
  10
-26.70917
  20
31.85198
  30
0.0
   0
VERTEX
   5
AD
100
AcDbEntity
   8
TITLEBLOCK
   6
CONTINUOUS
  62
      9
100
AcDbVertex
100
AcDb2dVertex
  10
-26.77167
  20
31.74373
  30
0.0
   0
VERTEX
   5
AE
100
AcDbEntity
   8
TITLEBLOCK
   6
CONTINUOUS
  62
      9
100
AcDbVertex
100
AcDb2dVertex
  10
-26.77167
  20
30.96024
  30
0.0
   0
VERTEX
   5
AF
100
AcDbEntity
   8
TITLEBLOCK
   6
CONTINUOUS
  62
      9
100
AcDbVertex
100
AcDb2dVertex
  10
-26.74042
  20
30.90611
  30
0.0
   0
VERTEX
   5
B0
100
AcDbEntity
   8
TITLEBLOCK
   6
CONTINUOUS
  62
      9
100
AcDbVertex
100
AcDb2dVertex
  10
-26.70917
  20
30.96024
  30
0.0
   0
SEQEND
   5
B1
100
AcDbEntity
   8
TITLEBLOCK
   6
CONTINUOUS
   0
POLYLINE
   5
B2
100
AcDbEntity
   8
TITLEBLOCK
   6
CONTINUOUS
  62
      9
100
AcDb2dPolyline
  66
      1
  10
0.0
  20
0.0
  30
0.0
  70
      1
  75
      5
   0
VERTEX
   5
B3
100
AcDbEntity
   8
TITLEBLOCK
   6
CONTINUOUS
  62
      9
100
AcDbVertex
100
AcDb2dVertex
  10
-7.86542
  20
31.79785
  30
0.0
   0
VERTEX
   5
B4
100
AcDbEntity
   8
TITLEBLOCK
   6
CONTINUOUS
  62
      9
100
AcDbVertex
100
AcDb2dVertex
  10
-7.86542
  20
31.35198
  30
0.0
   0
VERTEX
   5
B5
100
AcDbEntity
   8
TITLEBLOCK
   6
CONTINUOUS
  62
      9
100
AcDbVertex
100
AcDb2dVertex
  10
-7.89667
  20
31.74373
  30
0.0
   0
VERTEX
   5
B6
100
AcDbEntity
   8
TITLEBLOCK
   6
CONTINUOUS
  62
      9
100
AcDbVertex
100
AcDb2dVertex
  10
-7.86542
  20
31.79786
  30
0.0
   0
SEQEND
   5
B7
100
AcDbEntity
   8
TITLEBLOCK
   6
CONTINUOUS
   0
POLYLINE
   5
B8
100
AcDbEntity
   8
TITLEBLOCK
   6
CONTINUOUS
  62
      9
100
AcDb2dPolyline
  66
      1
  10
0.0
  20
0.0
  30
0.0
  75
      5
   0
VERTEX
   5
B9
100
AcDbEntity
   8
TITLEBLOCK
   6
CONTINUOUS
  62
      9
100
AcDbVertex
100
AcDb2dVertex
  10
-7.89667
  20
31.74373
  30
0.0
   0
VERTEX
   5
BA
100
AcDbEntity
   8
TITLEBLOCK
   6
CONTINUOUS
  62
      9
100
AcDbVertex
100
AcDb2dVertex
  10
-7.95917
  20
31.85198
  30
0.0
   0
VERTEX
   5
BB
100
AcDbEntity
   8
TITLEBLOCK
   6
CONTINUOUS
  62
      9
100
AcDbVertex
100
AcDb2dVertex
  10
-7.89667
  20
30.85198
  30
0.0
   0
SEQEND
   5
BC
100
AcDbEntity
   8
TITLEBLOCK
   6
CONTINUOUS
   0
POLYLINE
   5
BD
100
AcDbEntity
   8
TITLEBLOCK
   6
CONTINUOUS
  62
      9
100
AcDb2dPolyline
  66
      1
  10
0.0
  20
0.0
  30
0.0
  70
      1
  75
      5
   0
VERTEX
   5
BE
100
AcDbEntity
   8
TITLEBLOCK
   6
CONTINUOUS
  62
      9
100
AcDbVertex
100
AcDb2dVertex
  10
-7.89667
  20
30.85198
  30
0.0
   0
VERTEX
   5
BF
100
AcDbEntity
   8
TITLEBLOCK
   6
CONTINUOUS
  62
      9
100
AcDbVertex
100
AcDb2dVertex
  10
-7.95917
  20
30.96023
  30
0.0
   0
VERTEX
   5
C0
100
AcDbEntity
   8
TITLEBLOCK
   6
CONTINUOUS
  62
      9
100
AcDbVertex
100
AcDb2dVertex
  10
-8.02167
  20
31.74372
  30
0.0
   0
VERTEX
   5
C1
100
AcDbEntity
   8
TITLEBLOCK
   6
CONTINUOUS
  62
      9
100
AcDbVertex
100
AcDb2dVertex
  10
-7.95917
  20
31.85197
  30
0.0
   0
SEQEND
   5
C2
100
AcDbEntity
   8
TITLEBLOCK
   6
CONTINUOUS
   0
POLYLINE
   5
C3
100
AcDbEntity
   8
TITLEBLOCK
   6
CONTINUOUS
  62
      9
100
AcDb2dPolyline
  66
      1
  10
0.0
  20
0.0
  30
0.0
  70
      1
  75
      5
   0
VERTEX
   5
C4
100
AcDbEntity
   8
TITLEBLOCK
   6
CONTINUOUS
  62
      9
100
AcDbVertex
100
AcDb2dVertex
  10
-8.02167
  20
31.74372
  30
0.0
   0
VERTEX
   5
C5
100
AcDbEntity
   8
TITLEBLOCK
   6
CONTINUOUS
  62
      9
100
AcDbVertex
100
AcDb2dVertex
  10
-8.08417
  20
31.85197
  30
0.0
   0
VERTEX
   5
C6
100
AcDbEntity
   8
TITLEBLOCK
   6
CONTINUOUS
  62
      9
100
AcDbVertex
100
AcDb2dVertex
  10
-8.02167
  20
30.85197
  30
0.0
   0
VERTEX
   5
C7
100
AcDbEntity
   8
TITLEBLOCK
   6
CONTINUOUS
  62
      9
100
AcDbVertex
100
AcDb2dVertex
  10
-7.95917
  20
30.96022
  30
0.0
   0
SEQEND
   5
C8
100
AcDbEntity
   8
TITLEBLOCK
   6
CONTINUOUS
   0
POLYLINE
   5
C9
100
AcDbEntity
   8
TITLEBLOCK
   6
CONTINUOUS
  62
      9
100
AcDb2dPolyline
  66
      1
  10
0.0
  20
0.0
  30
0.0
  70
      1
  75
      5
   0
VERTEX
   5
CA
100
AcDbEntity
   8
TITLEBLOCK
   6
CONTINUOUS
  62
      9
100
AcDbVertex
100
AcDb2dVertex
  10
-8.02167
  20
30.85197
  30
0.0
   0
VERTEX
   5
CB
100
AcDbEntity
   8
TITLEBLOCK
   6
CONTINUOUS
  62
      9
100
AcDbVertex
100
AcDb2dVertex
  10
-8.08417
  20
30.96022
  30
0.0
   0
VERTEX
   5
CC
100
AcDbEntity
   8
TITLEBLOCK
   6
CONTINUOUS
  62
      9
100
AcDbVertex
100
AcDb2dVertex
  10
-8.14667
  20
31.74371
  30
0.0
   0
VERTEX
   5
CD
100
AcDbEntity
   8
TITLEBLOCK
   6
CONTINUOUS
  62
      9
100
AcDbVertex
100
AcDb2dVertex
  10
-8.08417
  20
31.85196
  30
0.0
   0
SEQEND
   5
CE
100
AcDbEntity
   8
TITLEBLOCK
   6
CONTINUOUS
   0
POLYLINE
   5
CF
100
AcDbEntity
   8
TITLEBLOCK
   6
CONTINUOUS
  62
      9
100
AcDb2dPolyline
  66
      1
  10
0.0
  20
0.0
  30
0.0
  70
      1
  75
      5
   0
VERTEX
   5
D0
100
AcDbEntity
   8
TITLEBLOCK
   6
CONTINUOUS
  62
      9
100
AcDbVertex
100
AcDb2dVertex
  10
-8.14667
  20
31.74371
  30
0.0
   0
VERTEX
   5
D1
100
AcDbEntity
   8
TITLEBLOCK
   6
CONTINUOUS
  62
      9
100
AcDbVertex
100
AcDb2dVertex
  10
-8.20917
  20
31.85196
  30
0.0
   0
VERTEX
   5
D2
100
AcDbEntity
   8
TITLEBLOCK
   6
CONTINUOUS
  62
      9
100
AcDbVertex
100
AcDb2dVertex
  10
-8.14667
  20
30.85196
  30
0.0
   0
VERTEX
   5
D3
100
AcDbEntity
   8
TITLEBLOCK
   6
CONTINUOUS
  62
      9
100
AcDbVertex
100
AcDb2dVertex
  10
-8.08417
  20
30.96021
  30
0.0
   0
SEQEND
   5
D4
100
AcDbEntity
   8
TITLEBLOCK
   6
CONTINUOUS
   0
POLYLINE
   5
D5
100
AcDbEntity
   8
TITLEBLOCK
   6
CONTINUOUS
  62
      9
100
AcDb2dPolyline
  66
      1
  10
0.0
  20
0.0
  30
0.0
  70
      1
  75
      5
   0
VERTEX
   5
D6
100
AcDbEntity
   8
TITLEBLOCK
   6
CONTINUOUS
  62
      9
100
AcDbVertex
100
AcDb2dVertex
  10
-8.14667
  20
30.85196
  30
0.0
   0
VERTEX
   5
D7
100
AcDbEntity
   8
TITLEBLOCK
   6
CONTINUOUS
  62
      9
100
AcDbVertex
100
AcDb2dVertex
  10
-8.20917
  20
30.96021
  30
0.0
   0
VERTEX
   5
D8
100
AcDbEntity
   8
TITLEBLOCK
   6
CONTINUOUS
  62
      9
100
AcDbVertex
100
AcDb2dVertex
  10
-8.27167
  20
31.7437
  30
0.0
   0
VERTEX
   5
D9
100
AcDbEntity
   8
TITLEBLOCK
   6
CONTINUOUS
  62
      9
100
AcDbVertex
100
AcDb2dVertex
  10
-8.20917
  20
31.85195
  30
0.0
   0
SEQEND
   5
DA
100
AcDbEntity
   8
TITLEBLOCK
   6
CONTINUOUS
   0
POLYLINE
   5
DB
100
AcDbEntity
   8
TITLEBLOCK
   6
CONTINUOUS
  62
      9
100
AcDb2dPolyline
  66
      1
  10
0.0
  20
0.0
  30
0.0
  70
      1
  75
      5
   0
VERTEX
   5
DC
100
AcDbEntity
   8
TITLEBLOCK
   6
CONTINUOUS
  62
      9
100
AcDbVertex
100
AcDb2dVertex
  10
-8.27167
  20
31.7437
  30
0.0
   0
VERTEX
   5
DD
100
AcDbEntity
   8
TITLEBLOCK
   6
CONTINUOUS
  62
      9
100
AcDbVertex
100
AcDb2dVertex
  10
-8.33417
  20
31.85195
  30
0.0
   0
VERTEX
   5
DE
100
AcDbEntity
   8
TITLEBLOCK
   6
CONTINUOUS
  62
      9
100
AcDbVertex
100
AcDb2dVertex
  10
-8.27167
  20
30.85195
  30
0.0
   0
VERTEX
   5
DF
100
AcDbEntity
   8
TITLEBLOCK
   6
CONTINUOUS
  62
      9
100
AcDbVertex
100
AcDb2dVertex
  10
-8.20917
  20
30.9602
  30
0.0
   0
SEQEND
   5
E0
100
AcDbEntity
   8
TITLEBLOCK
   6
CONTINUOUS
   0
POLYLINE
   5
E1
100
AcDbEntity
   8
TITLEBLOCK
   6
CONTINUOUS
  62
      9
100
AcDb2dPolyline
  66
      1
  10
0.0
  20
0.0
  30
0.0
  70
      1
  75
      5
   0
VERTEX
   5
E2
100
AcDbEntity
   8
TITLEBLOCK
   6
CONTINUOUS
  62
      9
100
AcDbVertex
100
AcDb2dVertex
  10
-8.27167
  20
30.85195
  30
0.0
   0
VERTEX
   5
E3
100
AcDbEntity
   8
TITLEBLOCK
   6
CONTINUOUS
  62
      9
100
AcDbVertex
100
AcDb2dVertex
  10
-8.33417
  20
30.9602
  30
0.0
   0
VERTEX
   5
E4
100
AcDbEntity
   8
TITLEBLOCK
   6
CONTINUOUS
  62
      9
100
AcDbVertex
100
AcDb2dVertex
  10
-8.39667
  20
31.74369
  30
0.0
   0
VERTEX
   5
E5
100
AcDbEntity
   8
TITLEBLOCK
   6
CONTINUOUS
  62
      9
100
AcDbVertex
100
AcDb2dVertex
  10
-8.33417
  20
31.85194
  30
0.0
   0
SEQEND
   5
E6
100
AcDbEntity
   8
TITLEBLOCK
   6
CONTINUOUS
   0
POLYLINE
   5
E7
100
AcDbEntity
   8
TITLEBLOCK
   6
CONTINUOUS
  62
      9
100
AcDb2dPolyline
  66
      1
  10
0.0
  20
0.0
  30
0.0
  70
      1
  75
      5
   0
VERTEX
   5
E8
100
AcDbEntity
   8
TITLEBLOCK
   6
CONTINUOUS
  62
      9
100
AcDbVertex
100
AcDb2dVertex
  10
-8.39667
  20
31.74369
  30
0.0
   0
VERTEX
   5
E9
100
AcDbEntity
   8
TITLEBLOCK
   6
CONTINUOUS
  62
      9
100
AcDbVertex
100
AcDb2dVertex
  10
-8.45917
  20
31.85194
  30
0.0
   0
VERTEX
   5
EA
100
AcDbEntity
   8
TITLEBLOCK
   6
CONTINUOUS
  62
      9
100
AcDbVertex
100
AcDb2dVertex
  10
-8.39667
  20
30.85194
  30
0.0
   0
VERTEX
   5
EB
100
AcDbEntity
   8
TITLEBLOCK
   6
CONTINUOUS
  62
      9
100
AcDbVertex
100
AcDb2dVertex
  10
-8.33417
  20
30.96019
  30
0.0
   0
SEQEND
   5
EC
100
AcDbEntity
   8
TITLEBLOCK
   6
CONTINUOUS
   0
POLYLINE
   5
ED
100
AcDbEntity
   8
TITLEBLOCK
   6
CONTINUOUS
  62
      9
100
AcDb2dPolyline
  66
      1
  10
0.0
  20
0.0
  30
0.0
  70
      1
  75
      5
   0
VERTEX
   5
EE
100
AcDbEntity
   8
TITLEBLOCK
   6
CONTINUOUS
  62
      9
100
AcDbVertex
100
AcDb2dVertex
  10
-8.39667
  20
30.85194
  30
0.0
   0
VERTEX
   5
EF
100
AcDbEntity
   8
TITLEBLOCK
   6
CONTINUOUS
  62
      9
100
AcDbVertex
100
AcDb2dVertex
  10
-8.45917
  20
30.96019
  30
0.0
   0
VERTEX
   5
F0
100
AcDbEntity
   8
TITLEBLOCK
   6
CONTINUOUS
  62
      9
100
AcDbVertex
100
AcDb2dVertex
  10
-8.52167
  20
31.74368
  30
0.0
   0
VERTEX
   5
F1
100
AcDbEntity
   8
TITLEBLOCK
   6
CONTINUOUS
  62
      9
100
AcDbVertex
100
AcDb2dVertex
  10
-8.45917
  20
31.85193
  30
0.0
   0
SEQEND
   5
F2
100
AcDbEntity
   8
TITLEBLOCK
   6
CONTINUOUS
   0
POLYLINE
   5
F3
100
AcDbEntity
   8
TITLEBLOCK
   6
CONTINUOUS
  62
      9
100
AcDb2dPolyline
  66
      1
  10
0.0
  20
0.0
  30
0.0
  70
      1
  75
      5
   0
VERTEX
   5
F4
100
AcDbEntity
   8
TITLEBLOCK
   6
CONTINUOUS
  62
      9
100
AcDbVertex
100
AcDb2dVertex
  10
-8.52167
  20
31.74368
  30
0.0
   0
VERTEX
   5
F5
100
AcDbEntity
   8
TITLEBLOCK
   6
CONTINUOUS
  62
      9
100
AcDbVertex
100
AcDb2dVertex
  10
-8.58417
  20
31.85193
  30
0.0
   0
VERTEX
   5
F6
100
AcDbEntity
   8
TITLEBLOCK
   6
CONTINUOUS
  62
      9
100
AcDbVertex
100
AcDb2dVertex
  10
-8.52167
  20
30.85193
  30
0.0
   0
VERTEX
   5
F7
100
AcDbEntity
   8
TITLEBLOCK
   6
CONTINUOUS
  62
      9
100
AcDbVertex
100
AcDb2dVertex
  10
-8.45917
  20
30.96018
  30
0.0
   0
SEQEND
   5
F8
100
AcDbEntity
   8
TITLEBLOCK
   6
CONTINUOUS
   0
POLYLINE
   5
F9
100
AcDbEntity
   8
TITLEBLOCK
   6
CONTINUOUS
  62
      9
100
AcDb2dPolyline
  66
      1
  10
0.0
  20
0.0
  30
0.0
  70
      1
  75
      5
   0
VERTEX
   5
FA
100
AcDbEntity
   8
TITLEBLOCK
   6
CONTINUOUS
  62
      9
100
AcDbVertex
100
AcDb2dVertex
  10
-8.52167
  20
30.85193
  30
0.0
   0
VERTEX
   5
FB
100
AcDbEntity
   8
TITLEBLOCK
   6
CONTINUOUS
  62
      9
100
AcDbVertex
100
AcDb2dVertex
  10
-8.58417
  20
30.96018
  30
0.0
   0
VERTEX
   5
FC
100
AcDbEntity
   8
TITLEBLOCK
   6
CONTINUOUS
  62
      9
100
AcDbVertex
100
AcDb2dVertex
  10
-8.64667
  20
31.74367
  30
0.0
   0
VERTEX
   5
FD
100
AcDbEntity
   8
TITLEBLOCK
   6
CONTINUOUS
  62
      9
100
AcDbVertex
100
AcDb2dVertex
  10
-8.58417
  20
31.85192
  30
0.0
   0
SEQEND
   5
FE
100
AcDbEntity
   8
TITLEBLOCK
   6
CONTINUOUS
   0
POLYLINE
   5
FF
100
AcDbEntity
   8
TITLEBLOCK
   6
CONTINUOUS
  62
      9
100
AcDb2dPolyline
  66
      1
  10
0.0
  20
0.0
  30
0.0
  70
      1
  75
      5
   0
VERTEX
   5
100
100
AcDbEntity
   8
TITLEBLOCK
   6
CONTINUOUS
  62
      9
100
AcDbVertex
100
AcDb2dVertex
  10
-8.64667
  20
31.74367
  30
0.0
   0
VERTEX
   5
101
100
AcDbEntity
   8
TITLEBLOCK
   6
CONTINUOUS
  62
      9
100
AcDbVertex
100
AcDb2dVertex
  10
-8.70917
  20
31.85192
  30
0.0
   0
VERTEX
   5
102
100
AcDbEntity
   8
TITLEBLOCK
   6
CONTINUOUS
  62
      9
100
AcDbVertex
100
AcDb2dVertex
  10
-8.64667
  20
30.85192
  30
0.0
   0
VERTEX
   5
103
100
AcDbEntity
   8
TITLEBLOCK
   6
CONTINUOUS
  62
      9
100
AcDbVertex
100
AcDb2dVertex
  10
-8.58417
  20
30.96017
  30
0.0
   0
SEQEND
   5
104
100
AcDbEntity
   8
TITLEBLOCK
   6
CONTINUOUS
   0
POLYLINE
   5
105
100
AcDbEntity
   8
TITLEBLOCK
   6
CONTINUOUS
  62
      9
100
AcDb2dPolyline
  66
      1
  10
0.0
  20
0.0
  30
0.0
  70
      1
  75
      5
   0
VERTEX
   5
106
100
AcDbEntity
   8
TITLEBLOCK
   6
CONTINUOUS
  62
      9
100
AcDbVertex
100
AcDb2dVertex
  10
-8.64667
  20
30.85192
  30
0.0
   0
VERTEX
   5
107
100
AcDbEntity
   8
TITLEBLOCK
   6
CONTINUOUS
  62
      9
100
AcDbVertex
100
AcDb2dVertex
  10
-8.70917
  20
30.96017
  30
0.0
   0
VERTEX
   5
108
100
AcDbEntity
   8
TITLEBLOCK
   6
CONTINUOUS
  62
      9
100
AcDbVertex
100
AcDb2dVertex
  10
-8.77167
  20
31.74366
  30
0.0
   0
VERTEX
   5
109
100
AcDbEntity
   8
TITLEBLOCK
   6
CONTINUOUS
  62
      9
100
AcDbVertex
100
AcDb2dVertex
  10
-8.70917
  20
31.85191
  30
0.0
   0
SEQEND
   5
10A
100
AcDbEntity
   8
TITLEBLOCK
   6
CONTINUOUS
   0
POLYLINE
   5
10B
100
AcDbEntity
   8
TITLEBLOCK
   6
CONTINUOUS
  62
      9
100
AcDb2dPolyline
  66
      1
  10
0.0
  20
0.0
  30
0.0
  70
      1
  75
      5
   0
VERTEX
   5
10C
100
AcDbEntity
   8
TITLEBLOCK
   6
CONTINUOUS
  62
      9
100
AcDbVertex
100
AcDb2dVertex
  10
-8.77167
  20
31.74366
  30
0.0
   0
VERTEX
   5
10D
100
AcDbEntity
   8
TITLEBLOCK
   6
CONTINUOUS
  62
      9
100
AcDbVertex
100
AcDb2dVertex
  10
-8.83417
  20
31.85191
  30
0.0
   0
VERTEX
   5
10E
100
AcDbEntity
   8
TITLEBLOCK
   6
CONTINUOUS
  62
      9
100
AcDbVertex
100
AcDb2dVertex
  10
-8.77167
  20
30.85191
  30
0.0
   0
VERTEX
   5
10F
100
AcDbEntity
   8
TITLEBLOCK
   6
CONTINUOUS
  62
      9
100
AcDbVertex
100
AcDb2dVertex
  10
-8.70917
  20
30.96016
  30
0.0
   0
SEQEND
   5
110
100
AcDbEntity
   8
TITLEBLOCK
   6
CONTINUOUS
   0
POLYLINE
   5
111
100
AcDbEntity
   8
TITLEBLOCK
   6
CONTINUOUS
  62
      9
100
AcDb2dPolyline
  66
      1
  10
0.0
  20
0.0
  30
0.0
  70
      1
  75
      5
   0
VERTEX
   5
112
100
AcDbEntity
   8
TITLEBLOCK
   6
CONTINUOUS
  62
      9
100
AcDbVertex
100
AcDb2dVertex
  10
-8.77167
  20
30.85191
  30
0.0
   0
VERTEX
   5
113
100
AcDbEntity
   8
TITLEBLOCK
   6
CONTINUOUS
  62
      9
100
AcDbVertex
100
AcDb2dVertex
  10
-8.83417
  20
30.96016
  30
0.0
   0
VERTEX
   5
114
100
AcDbEntity
   8
TITLEBLOCK
   6
CONTINUOUS
  62
      9
100
AcDbVertex
100
AcDb2dVertex
  10
-8.89667
  20
31.74365
  30
0.0
   0
VERTEX
   5
115
100
AcDbEntity
   8
TITLEBLOCK
   6
CONTINUOUS
  62
      9
100
AcDbVertex
100
AcDb2dVertex
  10
-8.83417
  20
31.8519
  30
0.0
   0
SEQEND
   5
116
100
AcDbEntity
   8
TITLEBLOCK
   6
CONTINUOUS
   0
POLYLINE
   5
117
100
AcDbEntity
   8
TITLEBLOCK
   6
CONTINUOUS
  62
      9
100
AcDb2dPolyline
  66
      1
  10
0.0
  20
0.0
  30
0.0
  70
      1
  75
      5
   0
VERTEX
   5
118
100
AcDbEntity
   8
TITLEBLOCK
   6
CONTINUOUS
  62
      9
100
AcDbVertex
100
AcDb2dVertex
  10
-8.89667
  20
31.74365
  30
0.0
   0
VERTEX
   5
119
100
AcDbEntity
   8
TITLEBLOCK
   6
CONTINUOUS
  62
      9
100
AcDbVertex
100
AcDb2dVertex
  10
-8.95917
  20
31.8519
  30
0.0
   0
VERTEX
   5
11A
100
AcDbEntity
   8
TITLEBLOCK
   6
CONTINUOUS
  62
      9
100
AcDbVertex
100
AcDb2dVertex
  10
-8.89667
  20
30.8519
  30
0.0
   0
VERTEX
   5
11B
100
AcDbEntity
   8
TITLEBLOCK
   6
CONTINUOUS
  62
      9
100
AcDbVertex
100
AcDb2dVertex
  10
-8.83417
  20
30.96015
  30
0.0
   0
SEQEND
   5
11C
100
AcDbEntity
   8
TITLEBLOCK
   6
CONTINUOUS
   0
POLYLINE
   5
11D
100
AcDbEntity
   8
TITLEBLOCK
   6
CONTINUOUS
  62
      9
100
AcDb2dPolyline
  66
      1
  10
0.0
  20
0.0
  30
0.0
  70
      1
  75
      5
   0
VERTEX
   5
11E
100
AcDbEntity
   8
TITLEBLOCK
   6
CONTINUOUS
  62
      9
100
AcDbVertex
100
AcDb2dVertex
  10
-8.89667
  20
30.8519
  30
0.0
   0
VERTEX
   5
11F
100
AcDbEntity
   8
TITLEBLOCK
   6
CONTINUOUS
  62
      9
100
AcDbVertex
100
AcDb2dVertex
  10
-8.95917
  20
30.96015
  30
0.0
   0
VERTEX
   5
120
100
AcDbEntity
   8
TITLEBLOCK
   6
CONTINUOUS
  62
      9
100
AcDbVertex
100
AcDb2dVertex
  10
-9.02167
  20
31.74364
  30
0.0
   0
VERTEX
   5
121
100
AcDbEntity
   8
TITLEBLOCK
   6
CONTINUOUS
  62
      9
100
AcDbVertex
100
AcDb2dVertex
  10
-8.95917
  20
31.85189
  30
0.0
   0
SEQEND
   5
122
100
AcDbEntity
   8
TITLEBLOCK
   6
CONTINUOUS
   0
POLYLINE
   5
123
100
AcDbEntity
   8
TITLEBLOCK
   6
CONTINUOUS
  62
      9
100
AcDb2dPolyline
  66
      1
  10
0.0
  20
0.0
  30
0.0
  70
      1
  75
      5
   0
VERTEX
   5
124
100
AcDbEntity
   8
TITLEBLOCK
   6
CONTINUOUS
  62
      9
100
AcDbVertex
100
AcDb2dVertex
  10
-9.02167
  20
31.74364
  30
0.0
   0
VERTEX
   5
125
100
AcDbEntity
   8
TITLEBLOCK
   6
CONTINUOUS
  62
      9
100
AcDbVertex
100
AcDb2dVertex
  10
-9.08417
  20
31.85189
  30
0.0
   0
VERTEX
   5
126
100
AcDbEntity
   8
TITLEBLOCK
   6
CONTINUOUS
  62
      9
100
AcDbVertex
100
AcDb2dVertex
  10
-9.02167
  20
30.85189
  30
0.0
   0
VERTEX
   5
127
100
AcDbEntity
   8
TITLEBLOCK
   6
CONTINUOUS
  62
      9
100
AcDbVertex
100
AcDb2dVertex
  10
-8.95917
  20
30.96014
  30
0.0
   0
SEQEND
   5
128
100
AcDbEntity
   8
TITLEBLOCK
   6
CONTINUOUS
   0
POLYLINE
   5
129
100
AcDbEntity
   8
TITLEBLOCK
   6
CONTINUOUS
  62
      9
100
AcDb2dPolyline
  66
      1
  10
0.0
  20
0.0
  30
0.0
  70
      1
  75
      5
   0
VERTEX
   5
12A
100
AcDbEntity
   8
TITLEBLOCK
   6
CONTINUOUS
  62
      9
100
AcDbVertex
100
AcDb2dVertex
  10
-9.02167
  20
30.85189
  30
0.0
   0
VERTEX
   5
12B
100
AcDbEntity
   8
TITLEBLOCK
   6
CONTINUOUS
  62
      9
100
AcDbVertex
100
AcDb2dVertex
  10
-9.08417
  20
30.96014
  30
0.0
   0
VERTEX
   5
12C
100
AcDbEntity
   8
TITLEBLOCK
   6
CONTINUOUS
  62
      9
100
AcDbVertex
100
AcDb2dVertex
  10
-9.14667
  20
31.74363
  30
0.0
   0
VERTEX
   5
12D
100
AcDbEntity
   8
TITLEBLOCK
   6
CONTINUOUS
  62
      9
100
AcDbVertex
100
AcDb2dVertex
  10
-9.08417
  20
31.85188
  30
0.0
   0
SEQEND
   5
12E
100
AcDbEntity
   8
TITLEBLOCK
   6
CONTINUOUS
   0
POLYLINE
   5
12F
100
AcDbEntity
   8
TITLEBLOCK
   6
CONTINUOUS
  62
      9
100
AcDb2dPolyline
  66
      1
  10
0.0
  20
0.0
  30
0.0
  70
      1
  75
      5
   0
VERTEX
   5
130
100
AcDbEntity
   8
TITLEBLOCK
   6
CONTINUOUS
  62
      9
100
AcDbVertex
100
AcDb2dVertex
  10
-9.14667
  20
31.74363
  30
0.0
   0
VERTEX
   5
131
100
AcDbEntity
   8
TITLEBLOCK
   6
CONTINUOUS
  62
      9
100
AcDbVertex
100
AcDb2dVertex
  10
-9.20917
  20
31.85188
  30
0.0
   0
VERTEX
   5
132
100
AcDbEntity
   8
TITLEBLOCK
   6
CONTINUOUS
  62
      9
100
AcDbVertex
100
AcDb2dVertex
  10
-9.14667
  20
30.85188
  30
0.0
   0
VERTEX
   5
133
100
AcDbEntity
   8
TITLEBLOCK
   6
CONTINUOUS
  62
      9
100
AcDbVertex
100
AcDb2dVertex
  10
-9.08417
  20
30.96013
  30
0.0
   0
SEQEND
   5
134
100
AcDbEntity
   8
TITLEBLOCK
   6
CONTINUOUS
   0
POLYLINE
   5
135
100
AcDbEntity
   8
TITLEBLOCK
   6
CONTINUOUS
  62
      9
100
AcDb2dPolyline
  66
      1
  10
0.0
  20
0.0
  30
0.0
  70
      1
  75
      5
   0
VERTEX
   5
136
100
AcDbEntity
   8
TITLEBLOCK
   6
CONTINUOUS
  62
      9
100
AcDbVertex
100
AcDb2dVertex
  10
-9.14667
  20
30.85188
  30
0.0
   0
VERTEX
   5
137
100
AcDbEntity
   8
TITLEBLOCK
   6
CONTINUOUS
  62
      9
100
AcDbVertex
100
AcDb2dVertex
  10
-9.20917
  20
30.96013
  30
0.0
   0
VERTEX
   5
138
100
AcDbEntity
   8
TITLEBLOCK
   6
CONTINUOUS
  62
      9
100
AcDbVertex
100
AcDb2dVertex
  10
-9.27167
  20
31.74362
  30
0.0
   0
VERTEX
   5
139
100
AcDbEntity
   8
TITLEBLOCK
   6
CONTINUOUS
  62
      9
100
AcDbVertex
100
AcDb2dVertex
  10
-9.20917
  20
31.85187
  30
0.0
   0
SEQEND
   5
13A
100
AcDbEntity
   8
TITLEBLOCK
   6
CONTINUOUS
   0
POLYLINE
   5
13B
100
AcDbEntity
   8
TITLEBLOCK
   6
CONTINUOUS
  62
      9
100
AcDb2dPolyline
  66
      1
  10
0.0
  20
0.0
  30
0.0
  70
      1
  75
      5
   0
VERTEX
   5
13C
100
AcDbEntity
   8
TITLEBLOCK
   6
CONTINUOUS
  62
      9
100
AcDbVertex
100
AcDb2dVertex
  10
-9.27167
  20
31.74362
  30
0.0
   0
VERTEX
   5
13D
100
AcDbEntity
   8
TITLEBLOCK
   6
CONTINUOUS
  62
      9
100
AcDbVertex
100
AcDb2dVertex
  10
-9.33417
  20
31.85187
  30
0.0
   0
VERTEX
   5
13E
100
AcDbEntity
   8
TITLEBLOCK
   6
CONTINUOUS
  62
      9
100
AcDbVertex
100
AcDb2dVertex
  10
-9.27167
  20
30.85187
  30
0.0
   0
VERTEX
   5
13F
100
AcDbEntity
   8
TITLEBLOCK
   6
CONTINUOUS
  62
      9
100
AcDbVertex
100
AcDb2dVertex
  10
-9.20917
  20
30.96012
  30
0.0
   0
SEQEND
   5
140
100
AcDbEntity
   8
TITLEBLOCK
   6
CONTINUOUS
   0
POLYLINE
   5
141
100
AcDbEntity
   8
TITLEBLOCK
   6
CONTINUOUS
  62
      9
100
AcDb2dPolyline
  66
      1
  10
0.0
  20
0.0
  30
0.0
  70
      1
  75
      5
   0
VERTEX
   5
142
100
AcDbEntity
   8
TITLEBLOCK
   6
CONTINUOUS
  62
      9
100
AcDbVertex
100
AcDb2dVertex
  10
-9.27167
  20
30.85187
  30
0.0
   0
VERTEX
   5
143
100
AcDbEntity
   8
TITLEBLOCK
   6
CONTINUOUS
  62
      9
100
AcDbVertex
100
AcDb2dVertex
  10
-9.33417
  20
30.96012
  30
0.0
   0
VERTEX
   5
144
100
AcDbEntity
   8
TITLEBLOCK
   6
CONTINUOUS
  62
      9
100
AcDbVertex
100
AcDb2dVertex
  10
-9.39667
  20
31.74361
  30
0.0
   0
VERTEX
   5
145
100
AcDbEntity
   8
TITLEBLOCK
   6
CONTINUOUS
  62
      9
100
AcDbVertex
100
AcDb2dVertex
  10
-9.33417
  20
31.85186
  30
0.0
   0
SEQEND
   5
146
100
AcDbEntity
   8
TITLEBLOCK
   6
CONTINUOUS
   0
POLYLINE
   5
147
100
AcDbEntity
   8
TITLEBLOCK
   6
CONTINUOUS
  62
      9
100
AcDb2dPolyline
  66
      1
  10
0.0
  20
0.0
  30
0.0
  70
      1
  75
      5
   0
VERTEX
   5
148
100
AcDbEntity
   8
TITLEBLOCK
   6
CONTINUOUS
  62
      9
100
AcDbVertex
100
AcDb2dVertex
  10
-9.39667
  20
31.74361
  30
0.0
   0
VERTEX
   5
149
100
AcDbEntity
   8
TITLEBLOCK
   6
CONTINUOUS
  62
      9
100
AcDbVertex
100
AcDb2dVertex
  10
-9.45917
  20
31.85186
  30
0.0
   0
VERTEX
   5
14A
100
AcDbEntity
   8
TITLEBLOCK
   6
CONTINUOUS
  62
      9
100
AcDbVertex
100
AcDb2dVertex
  10
-9.39667
  20
30.85186
  30
0.0
   0
VERTEX
   5
14B
100
AcDbEntity
   8
TITLEBLOCK
   6
CONTINUOUS
  62
      9
100
AcDbVertex
100
AcDb2dVertex
  10
-9.33417
  20
30.96011
  30
0.0
   0
SEQEND
   5
14C
100
AcDbEntity
   8
TITLEBLOCK
   6
CONTINUOUS
   0
POLYLINE
   5
14D
100
AcDbEntity
   8
TITLEBLOCK
   6
CONTINUOUS
  62
      9
100
AcDb2dPolyline
  66
      1
  10
0.0
  20
0.0
  30
0.0
  70
      1
  75
      5
   0
VERTEX
   5
14E
100
AcDbEntity
   8
TITLEBLOCK
   6
CONTINUOUS
  62
      9
100
AcDbVertex
100
AcDb2dVertex
  10
-9.39667
  20
30.85186
  30
0.0
   0
VERTEX
   5
14F
100
AcDbEntity
   8
TITLEBLOCK
   6
CONTINUOUS
  62
      9
100
AcDbVertex
100
AcDb2dVertex
  10
-9.45917
  20
30.96011
  30
0.0
   0
VERTEX
   5
150
100
AcDbEntity
   8
TITLEBLOCK
   6
CONTINUOUS
  62
      9
100
AcDbVertex
100
AcDb2dVertex
  10
-9.52167
  20
31.7436
  30
0.0
   0
VERTEX
   5
151
100
AcDbEntity
   8
TITLEBLOCK
   6
CONTINUOUS
  62
      9
100
AcDbVertex
100
AcDb2dVertex
  10
-9.45917
  20
31.85185
  30
0.0
   0
SEQEND
   5
152
100
AcDbEntity
   8
TITLEBLOCK
   6
CONTINUOUS
   0
POLYLINE
   5
153
100
AcDbEntity
   8
TITLEBLOCK
   6
CONTINUOUS
  62
      9
100
AcDb2dPolyline
  66
      1
  10
0.0
  20
0.0
  30
0.0
  70
      1
  75
      5
   0
VERTEX
   5
154
100
AcDbEntity
   8
TITLEBLOCK
   6
CONTINUOUS
  62
      9
100
AcDbVertex
100
AcDb2dVertex
  10
-9.52167
  20
31.7436
  30
0.0
   0
VERTEX
   5
155
100
AcDbEntity
   8
TITLEBLOCK
   6
CONTINUOUS
  62
      9
100
AcDbVertex
100
AcDb2dVertex
  10
-9.58417
  20
31.85185
  30
0.0
   0
VERTEX
   5
156
100
AcDbEntity
   8
TITLEBLOCK
   6
CONTINUOUS
  62
      9
100
AcDbVertex
100
AcDb2dVertex
  10
-9.52167
  20
30.85185
  30
0.0
   0
VERTEX
   5
157
100
AcDbEntity
   8
TITLEBLOCK
   6
CONTINUOUS
  62
      9
100
AcDbVertex
100
AcDb2dVertex
  10
-9.45917
  20
30.9601
  30
0.0
   0
SEQEND
   5
158
100
AcDbEntity
   8
TITLEBLOCK
   6
CONTINUOUS
   0
POLYLINE
   5
159
100
AcDbEntity
   8
TITLEBLOCK
   6
CONTINUOUS
  62
      9
100
AcDb2dPolyline
  66
      1
  10
0.0
  20
0.0
  30
0.0
  70
      1
  75
      5
   0
VERTEX
   5
15A
100
AcDbEntity
   8
TITLEBLOCK
   6
CONTINUOUS
  62
      9
100
AcDbVertex
100
AcDb2dVertex
  10
-9.52167
  20
30.85185
  30
0.0
   0
VERTEX
   5
15B
100
AcDbEntity
   8
TITLEBLOCK
   6
CONTINUOUS
  62
      9
100
AcDbVertex
100
AcDb2dVertex
  10
-9.58417
  20
30.9601
  30
0.0
   0
VERTEX
   5
15C
100
AcDbEntity
   8
TITLEBLOCK
   6
CONTINUOUS
  62
      9
100
AcDbVertex
100
AcDb2dVertex
  10
-9.64667
  20
31.74359
  30
0.0
   0
VERTEX
   5
15D
100
AcDbEntity
   8
TITLEBLOCK
   6
CONTINUOUS
  62
      9
100
AcDbVertex
100
AcDb2dVertex
  10
-9.58417
  20
31.85184
  30
0.0
   0
SEQEND
   5
15E
100
AcDbEntity
   8
TITLEBLOCK
   6
CONTINUOUS
   0
POLYLINE
   5
15F
100
AcDbEntity
   8
TITLEBLOCK
   6
CONTINUOUS
  62
      9
100
AcDb2dPolyline
  66
      1
  10
0.0
  20
0.0
  30
0.0
  70
      1
  75
      5
   0
VERTEX
   5
160
100
AcDbEntity
   8
TITLEBLOCK
   6
CONTINUOUS
  62
      9
100
AcDbVertex
100
AcDb2dVertex
  10
-9.64667
  20
31.74359
  30
0.0
   0
VERTEX
   5
161
100
AcDbEntity
   8
TITLEBLOCK
   6
CONTINUOUS
  62
      9
100
AcDbVertex
100
AcDb2dVertex
  10
-9.70917
  20
31.85184
  30
0.0
   0
VERTEX
   5
162
100
AcDbEntity
   8
TITLEBLOCK
   6
CONTINUOUS
  62
      9
100
AcDbVertex
100
AcDb2dVertex
  10
-9.64667
  20
30.85184
  30
0.0
   0
VERTEX
   5
163
100
AcDbEntity
   8
TITLEBLOCK
   6
CONTINUOUS
  62
      9
100
AcDbVertex
100
AcDb2dVertex
  10
-9.58417
  20
30.96009
  30
0.0
   0
SEQEND
   5
164
100
AcDbEntity
   8
TITLEBLOCK
   6
CONTINUOUS
   0
POLYLINE
   5
165
100
AcDbEntity
   8
TITLEBLOCK
   6
CONTINUOUS
  62
      9
100
AcDb2dPolyline
  66
      1
  10
0.0
  20
0.0
  30
0.0
  70
      1
  75
      5
   0
VERTEX
   5
166
100
AcDbEntity
   8
TITLEBLOCK
   6
CONTINUOUS
  62
      9
100
AcDbVertex
100
AcDb2dVertex
  10
-9.64667
  20
30.85184
  30
0.0
   0
VERTEX
   5
167
100
AcDbEntity
   8
TITLEBLOCK
   6
CONTINUOUS
  62
      9
100
AcDbVertex
100
AcDb2dVertex
  10
-9.70917
  20
30.96009
  30
0.0
   0
VERTEX
   5
168
100
AcDbEntity
   8
TITLEBLOCK
   6
CONTINUOUS
  62
      9
100
AcDbVertex
100
AcDb2dVertex
  10
-9.77167
  20
31.74358
  30
0.0
   0
VERTEX
   5
169
100
AcDbEntity
   8
TITLEBLOCK
   6
CONTINUOUS
  62
      9
100
AcDbVertex
100
AcDb2dVertex
  10
-9.70917
  20
31.85183
  30
0.0
   0
SEQEND
   5
16A
100
AcDbEntity
   8
TITLEBLOCK
   6
CONTINUOUS
   0
POLYLINE
   5
16B
100
AcDbEntity
   8
TITLEBLOCK
   6
CONTINUOUS
  62
      9
100
AcDb2dPolyline
  66
      1
  10
0.0
  20
0.0
  30
0.0
  70
      1
  75
      5
   0
VERTEX
   5
16C
100
AcDbEntity
   8
TITLEBLOCK
   6
CONTINUOUS
  62
      9
100
AcDbVertex
100
AcDb2dVertex
  10
-9.77167
  20
31.74358
  30
0.0
   0
VERTEX
   5
16D
100
AcDbEntity
   8
TITLEBLOCK
   6
CONTINUOUS
  62
      9
100
AcDbVertex
100
AcDb2dVertex
  10
-9.83417
  20
31.85183
  30
0.0
   0
VERTEX
   5
16E
100
AcDbEntity
   8
TITLEBLOCK
   6
CONTINUOUS
  62
      9
100
AcDbVertex
100
AcDb2dVertex
  10
-9.77167
  20
30.85183
  30
0.0
   0
VERTEX
   5
16F
100
AcDbEntity
   8
TITLEBLOCK
   6
CONTINUOUS
  62
      9
100
AcDbVertex
100
AcDb2dVertex
  10
-9.70917
  20
30.96008
  30
0.0
   0
SEQEND
   5
170
100
AcDbEntity
   8
TITLEBLOCK
   6
CONTINUOUS
   0
POLYLINE
   5
171
100
AcDbEntity
   8
TITLEBLOCK
   6
CONTINUOUS
  62
      9
100
AcDb2dPolyline
  66
      1
  10
0.0
  20
0.0
  30
0.0
  70
      1
  75
      5
   0
VERTEX
   5
172
100
AcDbEntity
   8
TITLEBLOCK
   6
CONTINUOUS
  62
      9
100
AcDbVertex
100
AcDb2dVertex
  10
-9.77167
  20
30.85183
  30
0.0
   0
VERTEX
   5
173
100
AcDbEntity
   8
TITLEBLOCK
   6
CONTINUOUS
  62
      9
100
AcDbVertex
100
AcDb2dVertex
  10
-9.83417
  20
30.96008
  30
0.0
   0
VERTEX
   5
174
100
AcDbEntity
   8
TITLEBLOCK
   6
CONTINUOUS
  62
      9
100
AcDbVertex
100
AcDb2dVertex
  10
-9.89667
  20
31.74357
  30
0.0
   0
VERTEX
   5
175
100
AcDbEntity
   8
TITLEBLOCK
   6
CONTINUOUS
  62
      9
100
AcDbVertex
100
AcDb2dVertex
  10
-9.83417
  20
31.85182
  30
0.0
   0
SEQEND
   5
176
100
AcDbEntity
   8
TITLEBLOCK
   6
CONTINUOUS
   0
POLYLINE
   5
177
100
AcDbEntity
   8
TITLEBLOCK
   6
CONTINUOUS
  62
      9
100
AcDb2dPolyline
  66
      1
  10
0.0
  20
0.0
  30
0.0
  70
      1
  75
      5
   0
VERTEX
   5
178
100
AcDbEntity
   8
TITLEBLOCK
   6
CONTINUOUS
  62
      9
100
AcDbVertex
100
AcDb2dVertex
  10
-9.89667
  20
31.74357
  30
0.0
   0
VERTEX
   5
179
100
AcDbEntity
   8
TITLEBLOCK
   6
CONTINUOUS
  62
      9
100
AcDbVertex
100
AcDb2dVertex
  10
-9.95917
  20
31.85182
  30
0.0
   0
VERTEX
   5
17A
100
AcDbEntity
   8
TITLEBLOCK
   6
CONTINUOUS
  62
      9
100
AcDbVertex
100
AcDb2dVertex
  10
-9.89667
  20
30.85182
  30
0.0
   0
VERTEX
   5
17B
100
AcDbEntity
   8
TITLEBLOCK
   6
CONTINUOUS
  62
      9
100
AcDbVertex
100
AcDb2dVertex
  10
-9.83417
  20
30.96007
  30
0.0
   0
SEQEND
   5
17C
100
AcDbEntity
   8
TITLEBLOCK
   6
CONTINUOUS
   0
POLYLINE
   5
17D
100
AcDbEntity
   8
TITLEBLOCK
   6
CONTINUOUS
  62
      9
100
AcDb2dPolyline
  66
      1
  10
0.0
  20
0.0
  30
0.0
  70
      1
  75
      5
   0
VERTEX
   5
17E
100
AcDbEntity
   8
TITLEBLOCK
   6
CONTINUOUS
  62
      9
100
AcDbVertex
100
AcDb2dVertex
  10
-9.89667
  20
30.85182
  30
0.0
   0
VERTEX
   5
17F
100
AcDbEntity
   8
TITLEBLOCK
   6
CONTINUOUS
  62
      9
100
AcDbVertex
100
AcDb2dVertex
  10
-9.95917
  20
30.96007
  30
0.0
   0
VERTEX
   5
180
100
AcDbEntity
   8
TITLEBLOCK
   6
CONTINUOUS
  62
      9
100
AcDbVertex
100
AcDb2dVertex
  10
-10.02167
  20
31.74356
  30
0.0
   0
VERTEX
   5
181
100
AcDbEntity
   8
TITLEBLOCK
   6
CONTINUOUS
  62
      9
100
AcDbVertex
100
AcDb2dVertex
  10
-9.95917
  20
31.85181
  30
0.0
   0
SEQEND
   5
182
100
AcDbEntity
   8
TITLEBLOCK
   6
CONTINUOUS
   0
POLYLINE
   5
183
100
AcDbEntity
   8
TITLEBLOCK
   6
CONTINUOUS
  62
      9
100
AcDb2dPolyline
  66
      1
  10
0.0
  20
0.0
  30
0.0
  70
      1
  75
      5
   0
VERTEX
   5
184
100
AcDbEntity
   8
TITLEBLOCK
   6
CONTINUOUS
  62
      9
100
AcDbVertex
100
AcDb2dVertex
  10
-10.02167
  20
31.74356
  30
0.0
   0
VERTEX
   5
185
100
AcDbEntity
   8
TITLEBLOCK
   6
CONTINUOUS
  62
      9
100
AcDbVertex
100
AcDb2dVertex
  10
-10.08417
  20
31.85181
  30
0.0
   0
VERTEX
   5
186
100
AcDbEntity
   8
TITLEBLOCK
   6
CONTINUOUS
  62
      9
100
AcDbVertex
100
AcDb2dVertex
  10
-10.02167
  20
30.85181
  30
0.0
   0
VERTEX
   5
187
100
AcDbEntity
   8
TITLEBLOCK
   6
CONTINUOUS
  62
      9
100
AcDbVertex
100
AcDb2dVertex
  10
-9.95917
  20
30.96006
  30
0.0
   0
SEQEND
   5
188
100
AcDbEntity
   8
TITLEBLOCK
   6
CONTINUOUS
   0
POLYLINE
   5
189
100
AcDbEntity
   8
TITLEBLOCK
   6
CONTINUOUS
  62
      9
100
AcDb2dPolyline
  66
      1
  10
0.0
  20
0.0
  30
0.0
  70
      1
  75
      5
   0
VERTEX
   5
18A
100
AcDbEntity
   8
TITLEBLOCK
   6
CONTINUOUS
  62
      9
100
AcDbVertex
100
AcDb2dVertex
  10
-10.02167
  20
30.85181
  30
0.0
   0
VERTEX
   5
18B
100
AcDbEntity
   8
TITLEBLOCK
   6
CONTINUOUS
  62
      9
100
AcDbVertex
100
AcDb2dVertex
  10
-10.08417
  20
30.96006
  30
0.0
   0
VERTEX
   5
18C
100
AcDbEntity
   8
TITLEBLOCK
   6
CONTINUOUS
  62
      9
100
AcDbVertex
100
AcDb2dVertex
  10
-10.14667
  20
31.74355
  30
0.0
   0
VERTEX
   5
18D
100
AcDbEntity
   8
TITLEBLOCK
   6
CONTINUOUS
  62
      9
100
AcDbVertex
100
AcDb2dVertex
  10
-10.08417
  20
31.8518
  30
0.0
   0
SEQEND
   5
18E
100
AcDbEntity
   8
TITLEBLOCK
   6
CONTINUOUS
   0
POLYLINE
   5
18F
100
AcDbEntity
   8
TITLEBLOCK
   6
CONTINUOUS
  62
      9
100
AcDb2dPolyline
  66
      1
  10
0.0
  20
0.0
  30
0.0
  70
      1
  75
      5
   0
VERTEX
   5
190
100
AcDbEntity
   8
TITLEBLOCK
   6
CONTINUOUS
  62
      9
100
AcDbVertex
100
AcDb2dVertex
  10
-10.14667
  20
31.74355
  30
0.0
   0
VERTEX
   5
191
100
AcDbEntity
   8
TITLEBLOCK
   6
CONTINUOUS
  62
      9
100
AcDbVertex
100
AcDb2dVertex
  10
-10.20917
  20
31.8518
  30
0.0
   0
VERTEX
   5
192
100
AcDbEntity
   8
TITLEBLOCK
   6
CONTINUOUS
  62
      9
100
AcDbVertex
100
AcDb2dVertex
  10
-10.14667
  20
30.8518
  30
0.0
   0
VERTEX
   5
193
100
AcDbEntity
   8
TITLEBLOCK
   6
CONTINUOUS
  62
      9
100
AcDbVertex
100
AcDb2dVertex
  10
-10.08417
  20
30.96005
  30
0.0
   0
SEQEND
   5
194
100
AcDbEntity
   8
TITLEBLOCK
   6
CONTINUOUS
   0
POLYLINE
   5
195
100
AcDbEntity
   8
TITLEBLOCK
   6
CONTINUOUS
  62
      9
100
AcDb2dPolyline
  66
      1
  10
0.0
  20
0.0
  30
0.0
  70
      1
  75
      5
   0
VERTEX
   5
196
100
AcDbEntity
   8
TITLEBLOCK
   6
CONTINUOUS
  62
      9
100
AcDbVertex
100
AcDb2dVertex
  10
-10.14667
  20
30.8518
  30
0.0
   0
VERTEX
   5
197
100
AcDbEntity
   8
TITLEBLOCK
   6
CONTINUOUS
  62
      9
100
AcDbVertex
100
AcDb2dVertex
  10
-10.20917
  20
30.96005
  30
0.0
   0
VERTEX
   5
198
100
AcDbEntity
   8
TITLEBLOCK
   6
CONTINUOUS
  62
      9
100
AcDbVertex
100
AcDb2dVertex
  10
-10.27167
  20
31.74354
  30
0.0
   0
VERTEX
   5
199
100
AcDbEntity
   8
TITLEBLOCK
   6
CONTINUOUS
  62
      9
100
AcDbVertex
100
AcDb2dVertex
  10
-10.20917
  20
31.85179
  30
0.0
   0
SEQEND
   5
19A
100
AcDbEntity
   8
TITLEBLOCK
   6
CONTINUOUS
   0
POLYLINE
   5
19B
100
AcDbEntity
   8
TITLEBLOCK
   6
CONTINUOUS
  62
      9
100
AcDb2dPolyline
  66
      1
  10
0.0
  20
0.0
  30
0.0
  70
      1
  75
      5
   0
VERTEX
   5
19C
100
AcDbEntity
   8
TITLEBLOCK
   6
CONTINUOUS
  62
      9
100
AcDbVertex
100
AcDb2dVertex
  10
-10.27167
  20
31.74354
  30
0.0
   0
VERTEX
   5
19D
100
AcDbEntity
   8
TITLEBLOCK
   6
CONTINUOUS
  62
      9
100
AcDbVertex
100
AcDb2dVertex
  10
-10.33417
  20
31.85179
  30
0.0
   0
VERTEX
   5
19E
100
AcDbEntity
   8
TITLEBLOCK
   6
CONTINUOUS
  62
      9
100
AcDbVertex
100
AcDb2dVertex
  10
-10.27167
  20
30.85179
  30
0.0
   0
VERTEX
   5
19F
100
AcDbEntity
   8
TITLEBLOCK
   6
CONTINUOUS
  62
      9
100
AcDbVertex
100
AcDb2dVertex
  10
-10.20917
  20
30.96004
  30
0.0
   0
SEQEND
   5
1A0
100
AcDbEntity
   8
TITLEBLOCK
   6
CONTINUOUS
   0
POLYLINE
   5
1A1
100
AcDbEntity
   8
TITLEBLOCK
   6
CONTINUOUS
  62
      9
100
AcDb2dPolyline
  66
      1
  10
0.0
  20
0.0
  30
0.0
  70
      1
  75
      5
   0
VERTEX
   5
1A2
100
AcDbEntity
   8
TITLEBLOCK
   6
CONTINUOUS
  62
      9
100
AcDbVertex
100
AcDb2dVertex
  10
-10.27167
  20
30.85179
  30
0.0
   0
VERTEX
   5
1A3
100
AcDbEntity
   8
TITLEBLOCK
   6
CONTINUOUS
  62
      9
100
AcDbVertex
100
AcDb2dVertex
  10
-10.33417
  20
30.96004
  30
0.0
   0
VERTEX
   5
1A4
100
AcDbEntity
   8
TITLEBLOCK
   6
CONTINUOUS
  62
      9
100
AcDbVertex
100
AcDb2dVertex
  10
-10.39667
  20
31.74353
  30
0.0
   0
VERTEX
   5
1A5
100
AcDbEntity
   8
TITLEBLOCK
   6
CONTINUOUS
  62
      9
100
AcDbVertex
100
AcDb2dVertex
  10
-10.33417
  20
31.85178
  30
0.0
   0
SEQEND
   5
1A6
100
AcDbEntity
   8
TITLEBLOCK
   6
CONTINUOUS
   0
POLYLINE
   5
1A7
100
AcDbEntity
   8
TITLEBLOCK
   6
CONTINUOUS
  62
      9
100
AcDb2dPolyline
  66
      1
  10
0.0
  20
0.0
  30
0.0
  70
      1
  75
      5
   0
VERTEX
   5
1A8
100
AcDbEntity
   8
TITLEBLOCK
   6
CONTINUOUS
  62
      9
100
AcDbVertex
100
AcDb2dVertex
  10
-10.39667
  20
31.74353
  30
0.0
   0
VERTEX
   5
1A9
100
AcDbEntity
   8
TITLEBLOCK
   6
CONTINUOUS
  62
      9
100
AcDbVertex
100
AcDb2dVertex
  10
-10.45917
  20
31.85178
  30
0.0
   0
VERTEX
   5
1AA
100
AcDbEntity
   8
TITLEBLOCK
   6
CONTINUOUS
  62
      9
100
AcDbVertex
100
AcDb2dVertex
  10
-10.39667
  20
30.85178
  30
0.0
   0
VERTEX
   5
1AB
100
AcDbEntity
   8
TITLEBLOCK
   6
CONTINUOUS
  62
      9
100
AcDbVertex
100
AcDb2dVertex
  10
-10.33417
  20
30.96003
  30
0.0
   0
SEQEND
   5
1AC
100
AcDbEntity
   8
TITLEBLOCK
   6
CONTINUOUS
   0
POLYLINE
   5
1AD
100
AcDbEntity
   8
TITLEBLOCK
   6
CONTINUOUS
  62
      9
100
AcDb2dPolyline
  66
      1
  10
0.0
  20
0.0
  30
0.0
  70
      1
  75
      5
   0
VERTEX
   5
1AE
100
AcDbEntity
   8
TITLEBLOCK
   6
CONTINUOUS
  62
      9
100
AcDbVertex
100
AcDb2dVertex
  10
-10.39667
  20
30.85178
  30
0.0
   0
VERTEX
   5
1AF
100
AcDbEntity
   8
TITLEBLOCK
   6
CONTINUOUS
  62
      9
100
AcDbVertex
100
AcDb2dVertex
  10
-10.45917
  20
30.96003
  30
0.0
   0
VERTEX
   5
1B0
100
AcDbEntity
   8
TITLEBLOCK
   6
CONTINUOUS
  62
      9
100
AcDbVertex
100
AcDb2dVertex
  10
-10.52167
  20
31.74352
  30
0.0
   0
VERTEX
   5
1B1
100
AcDbEntity
   8
TITLEBLOCK
   6
CONTINUOUS
  62
      9
100
AcDbVertex
100
AcDb2dVertex
  10
-10.45917
  20
31.85177
  30
0.0
   0
SEQEND
   5
1B2
100
AcDbEntity
   8
TITLEBLOCK
   6
CONTINUOUS
   0
POLYLINE
   5
1B3
100
AcDbEntity
   8
TITLEBLOCK
   6
CONTINUOUS
  62
      9
100
AcDb2dPolyline
  66
      1
  10
0.0
  20
0.0
  30
0.0
  70
      1
  75
      5
   0
VERTEX
   5
1B4
100
AcDbEntity
   8
TITLEBLOCK
   6
CONTINUOUS
  62
      9
100
AcDbVertex
100
AcDb2dVertex
  10
-10.52167
  20
31.74352
  30
0.0
   0
VERTEX
   5
1B5
100
AcDbEntity
   8
TITLEBLOCK
   6
CONTINUOUS
  62
      9
100
AcDbVertex
100
AcDb2dVertex
  10
-10.58417
  20
31.85177
  30
0.0
   0
VERTEX
   5
1B6
100
AcDbEntity
   8
TITLEBLOCK
   6
CONTINUOUS
  62
      9
100
AcDbVertex
100
AcDb2dVertex
  10
-10.52167
  20
30.85177
  30
0.0
   0
VERTEX
   5
1B7
100
AcDbEntity
   8
TITLEBLOCK
   6
CONTINUOUS
  62
      9
100
AcDbVertex
100
AcDb2dVertex
  10
-10.45917
  20
30.96002
  30
0.0
   0
SEQEND
   5
1B8
100
AcDbEntity
   8
TITLEBLOCK
   6
CONTINUOUS
   0
POLYLINE
   5
1B9
100
AcDbEntity
   8
TITLEBLOCK
   6
CONTINUOUS
  62
      9
100
AcDb2dPolyline
  66
      1
  10
0.0
  20
0.0
  30
0.0
  70
      1
  75
      5
   0
VERTEX
   5
1BA
100
AcDbEntity
   8
TITLEBLOCK
   6
CONTINUOUS
  62
      9
100
AcDbVertex
100
AcDb2dVertex
  10
-10.52167
  20
30.85177
  30
0.0
   0
VERTEX
   5
1BB
100
AcDbEntity
   8
TITLEBLOCK
   6
CONTINUOUS
  62
      9
100
AcDbVertex
100
AcDb2dVertex
  10
-10.58417
  20
30.96002
  30
0.0
   0
VERTEX
   5
1BC
100
AcDbEntity
   8
TITLEBLOCK
   6
CONTINUOUS
  62
      9
100
AcDbVertex
100
AcDb2dVertex
  10
-10.64667
  20
31.74351
  30
0.0
   0
VERTEX
   5
1BD
100
AcDbEntity
   8
TITLEBLOCK
   6
CONTINUOUS
  62
      9
100
AcDbVertex
100
AcDb2dVertex
  10
-10.58417
  20
31.85176
  30
0.0
   0
SEQEND
   5
1BE
100
AcDbEntity
   8
TITLEBLOCK
   6
CONTINUOUS
   0
POLYLINE
   5
1BF
100
AcDbEntity
   8
TITLEBLOCK
   6
CONTINUOUS
  62
      9
100
AcDb2dPolyline
  66
      1
  10
0.0
  20
0.0
  30
0.0
  70
      1
  75
      5
   0
VERTEX
   5
1C0
100
AcDbEntity
   8
TITLEBLOCK
   6
CONTINUOUS
  62
      9
100
AcDbVertex
100
AcDb2dVertex
  10
-10.64667
  20
31.74351
  30
0.0
   0
VERTEX
   5
1C1
100
AcDbEntity
   8
TITLEBLOCK
   6
CONTINUOUS
  62
      9
100
AcDbVertex
100
AcDb2dVertex
  10
-10.70917
  20
31.85176
  30
0.0
   0
VERTEX
   5
1C2
100
AcDbEntity
   8
TITLEBLOCK
   6
CONTINUOUS
  62
      9
100
AcDbVertex
100
AcDb2dVertex
  10
-10.64667
  20
30.85176
  30
0.0
   0
VERTEX
   5
1C3
100
AcDbEntity
   8
TITLEBLOCK
   6
CONTINUOUS
  62
      9
100
AcDbVertex
100
AcDb2dVertex
  10
-10.58417
  20
30.96001
  30
0.0
   0
SEQEND
   5
1C4
100
AcDbEntity
   8
TITLEBLOCK
   6
CONTINUOUS
   0
POLYLINE
   5
1C5
100
AcDbEntity
   8
TITLEBLOCK
   6
CONTINUOUS
  62
      9
100
AcDb2dPolyline
  66
      1
  10
0.0
  20
0.0
  30
0.0
  70
      1
  75
      5
   0
VERTEX
   5
1C6
100
AcDbEntity
   8
TITLEBLOCK
   6
CONTINUOUS
  62
      9
100
AcDbVertex
100
AcDb2dVertex
  10
-10.64667
  20
30.85176
  30
0.0
   0
VERTEX
   5
1C7
100
AcDbEntity
   8
TITLEBLOCK
   6
CONTINUOUS
  62
      9
100
AcDbVertex
100
AcDb2dVertex
  10
-10.70917
  20
30.96001
  30
0.0
   0
VERTEX
   5
1C8
100
AcDbEntity
   8
TITLEBLOCK
   6
CONTINUOUS
  62
      9
100
AcDbVertex
100
AcDb2dVertex
  10
-10.77167
  20
31.7435
  30
0.0
   0
VERTEX
   5
1C9
100
AcDbEntity
   8
TITLEBLOCK
   6
CONTINUOUS
  62
      9
100
AcDbVertex
100
AcDb2dVertex
  10
-10.70917
  20
31.85175
  30
0.0
   0
SEQEND
   5
1CA
100
AcDbEntity
   8
TITLEBLOCK
   6
CONTINUOUS
   0
POLYLINE
   5
1CB
100
AcDbEntity
   8
TITLEBLOCK
   6
CONTINUOUS
  62
      9
100
AcDb2dPolyline
  66
      1
  10
0.0
  20
0.0
  30
0.0
  70
      1
  75
      5
   0
VERTEX
   5
1CC
100
AcDbEntity
   8
TITLEBLOCK
   6
CONTINUOUS
  62
      9
100
AcDbVertex
100
AcDb2dVertex
  10
-10.77167
  20
31.7435
  30
0.0
   0
VERTEX
   5
1CD
100
AcDbEntity
   8
TITLEBLOCK
   6
CONTINUOUS
  62
      9
100
AcDbVertex
100
AcDb2dVertex
  10
-10.83417
  20
31.85175
  30
0.0
   0
VERTEX
   5
1CE
100
AcDbEntity
   8
TITLEBLOCK
   6
CONTINUOUS
  62
      9
100
AcDbVertex
100
AcDb2dVertex
  10
-10.77167
  20
30.85175
  30
0.0
   0
VERTEX
   5
1CF
100
AcDbEntity
   8
TITLEBLOCK
   6
CONTINUOUS
  62
      9
100
AcDbVertex
100
AcDb2dVertex
  10
-10.70917
  20
30.96
  30
0.0
   0
SEQEND
   5
1D0
100
AcDbEntity
   8
TITLEBLOCK
   6
CONTINUOUS
   0
POLYLINE
   5
1D1
100
AcDbEntity
   8
TITLEBLOCK
   6
CONTINUOUS
  62
      9
100
AcDb2dPolyline
  66
      1
  10
0.0
  20
0.0
  30
0.0
  70
      1
  75
      5
   0
VERTEX
   5
1D2
100
AcDbEntity
   8
TITLEBLOCK
   6
CONTINUOUS
  62
      9
100
AcDbVertex
100
AcDb2dVertex
  10
-10.77167
  20
30.85175
  30
0.0
   0
VERTEX
   5
1D3
100
AcDbEntity
   8
TITLEBLOCK
   6
CONTINUOUS
  62
      9
100
AcDbVertex
100
AcDb2dVertex
  10
-10.83417
  20
30.96
  30
0.0
   0
VERTEX
   5
1D4
100
AcDbEntity
   8
TITLEBLOCK
   6
CONTINUOUS
  62
      9
100
AcDbVertex
100
AcDb2dVertex
  10
-10.89667
  20
31.74349
  30
0.0
   0
VERTEX
   5
1D5
100
AcDbEntity
   8
TITLEBLOCK
   6
CONTINUOUS
  62
      9
100
AcDbVertex
100
AcDb2dVertex
  10
-10.83417
  20
31.85174
  30
0.0
   0
SEQEND
   5
1D6
100
AcDbEntity
   8
TITLEBLOCK
   6
CONTINUOUS
   0
POLYLINE
   5
1D7
100
AcDbEntity
   8
TITLEBLOCK
   6
CONTINUOUS
  62
      9
100
AcDb2dPolyline
  66
      1
  10
0.0
  20
0.0
  30
0.0
  70
      1
  75
      5
   0
VERTEX
   5
1D8
100
AcDbEntity
   8
TITLEBLOCK
   6
CONTINUOUS
  62
      9
100
AcDbVertex
100
AcDb2dVertex
  10
-10.89667
  20
31.74349
  30
0.0
   0
VERTEX
   5
1D9
100
AcDbEntity
   8
TITLEBLOCK
   6
CONTINUOUS
  62
      9
100
AcDbVertex
100
AcDb2dVertex
  10
-10.95917
  20
31.85174
  30
0.0
   0
VERTEX
   5
1DA
100
AcDbEntity
   8
TITLEBLOCK
   6
CONTINUOUS
  62
      9
100
AcDbVertex
100
AcDb2dVertex
  10
-10.89667
  20
30.85174
  30
0.0
   0
VERTEX
   5
1DB
100
AcDbEntity
   8
TITLEBLOCK
   6
CONTINUOUS
  62
      9
100
AcDbVertex
100
AcDb2dVertex
  10
-10.83417
  20
30.95999
  30
0.0
   0
SEQEND
   5
1DC
100
AcDbEntity
   8
TITLEBLOCK
   6
CONTINUOUS
   0
POLYLINE
   5
1DD
100
AcDbEntity
   8
TITLEBLOCK
   6
CONTINUOUS
  62
      9
100
AcDb2dPolyline
  66
      1
  10
0.0
  20
0.0
  30
0.0
  70
      1
  75
      5
   0
VERTEX
   5
1DE
100
AcDbEntity
   8
TITLEBLOCK
   6
CONTINUOUS
  62
      9
100
AcDbVertex
100
AcDb2dVertex
  10
-10.89667
  20
30.85174
  30
0.0
   0
VERTEX
   5
1DF
100
AcDbEntity
   8
TITLEBLOCK
   6
CONTINUOUS
  62
      9
100
AcDbVertex
100
AcDb2dVertex
  10
-10.95917
  20
30.95999
  30
0.0
   0
VERTEX
   5
1E0
100
AcDbEntity
   8
TITLEBLOCK
   6
CONTINUOUS
  62
      9
100
AcDbVertex
100
AcDb2dVertex
  10
-11.02167
  20
31.74348
  30
0.0
   0
VERTEX
   5
1E1
100
AcDbEntity
   8
TITLEBLOCK
   6
CONTINUOUS
  62
      9
100
AcDbVertex
100
AcDb2dVertex
  10
-10.95917
  20
31.85173
  30
0.0
   0
SEQEND
   5
1E2
100
AcDbEntity
   8
TITLEBLOCK
   6
CONTINUOUS
   0
POLYLINE
   5
1E3
100
AcDbEntity
   8
TITLEBLOCK
   6
CONTINUOUS
  62
      9
100
AcDb2dPolyline
  66
      1
  10
0.0
  20
0.0
  30
0.0
  70
      1
  75
      5
   0
VERTEX
   5
1E4
100
AcDbEntity
   8
TITLEBLOCK
   6
CONTINUOUS
  62
      9
100
AcDbVertex
100
AcDb2dVertex
  10
-11.02167
  20
31.74348
  30
0.0
   0
VERTEX
   5
1E5
100
AcDbEntity
   8
TITLEBLOCK
   6
CONTINUOUS
  62
      9
100
AcDbVertex
100
AcDb2dVertex
  10
-11.08417
  20
31.85173
  30
0.0
   0
VERTEX
   5
1E6
100
AcDbEntity
   8
TITLEBLOCK
   6
CONTINUOUS
  62
      9
100
AcDbVertex
100
AcDb2dVertex
  10
-11.02167
  20
30.85173
  30
0.0
   0
VERTEX
   5
1E7
100
AcDbEntity
   8
TITLEBLOCK
   6
CONTINUOUS
  62
      9
100
AcDbVertex
100
AcDb2dVertex
  10
-10.95917
  20
30.95998
  30
0.0
   0
SEQEND
   5
1E8
100
AcDbEntity
   8
TITLEBLOCK
   6
CONTINUOUS
   0
POLYLINE
   5
1E9
100
AcDbEntity
   8
TITLEBLOCK
   6
CONTINUOUS
  62
      9
100
AcDb2dPolyline
  66
      1
  10
0.0
  20
0.0
  30
0.0
  70
      1
  75
      5
   0
VERTEX
   5
1EA
100
AcDbEntity
   8
TITLEBLOCK
   6
CONTINUOUS
  62
      9
100
AcDbVertex
100
AcDb2dVertex
  10
-11.02167
  20
30.85173
  30
0.0
   0
VERTEX
   5
1EB
100
AcDbEntity
   8
TITLEBLOCK
   6
CONTINUOUS
  62
      9
100
AcDbVertex
100
AcDb2dVertex
  10
-11.08417
  20
30.95998
  30
0.0
   0
VERTEX
   5
1EC
100
AcDbEntity
   8
TITLEBLOCK
   6
CONTINUOUS
  62
      9
100
AcDbVertex
100
AcDb2dVertex
  10
-11.14667
  20
31.74347
  30
0.0
   0
VERTEX
   5
1ED
100
AcDbEntity
   8
TITLEBLOCK
   6
CONTINUOUS
  62
      9
100
AcDbVertex
100
AcDb2dVertex
  10
-11.08417
  20
31.85172
  30
0.0
   0
SEQEND
   5
1EE
100
AcDbEntity
   8
TITLEBLOCK
   6
CONTINUOUS
   0
POLYLINE
   5
1EF
100
AcDbEntity
   8
TITLEBLOCK
   6
CONTINUOUS
  62
      9
100
AcDb2dPolyline
  66
      1
  10
0.0
  20
0.0
  30
0.0
  70
      1
  75
      5
   0
VERTEX
   5
1F0
100
AcDbEntity
   8
TITLEBLOCK
   6
CONTINUOUS
  62
      9
100
AcDbVertex
100
AcDb2dVertex
  10
-11.14667
  20
31.74347
  30
0.0
   0
VERTEX
   5
1F1
100
AcDbEntity
   8
TITLEBLOCK
   6
CONTINUOUS
  62
      9
100
AcDbVertex
100
AcDb2dVertex
  10
-11.20917
  20
31.85172
  30
0.0
   0
VERTEX
   5
1F2
100
AcDbEntity
   8
TITLEBLOCK
   6
CONTINUOUS
  62
      9
100
AcDbVertex
100
AcDb2dVertex
  10
-11.14667
  20
30.85172
  30
0.0
   0
VERTEX
   5
1F3
100
AcDbEntity
   8
TITLEBLOCK
   6
CONTINUOUS
  62
      9
100
AcDbVertex
100
AcDb2dVertex
  10
-11.08417
  20
30.95997
  30
0.0
   0
SEQEND
   5
1F4
100
AcDbEntity
   8
TITLEBLOCK
   6
CONTINUOUS
   0
POLYLINE
   5
1F5
100
AcDbEntity
   8
TITLEBLOCK
   6
CONTINUOUS
  62
      9
100
AcDb2dPolyline
  66
      1
  10
0.0
  20
0.0
  30
0.0
  70
      1
  75
      5
   0
VERTEX
   5
1F6
100
AcDbEntity
   8
TITLEBLOCK
   6
CONTINUOUS
  62
      9
100
AcDbVertex
100
AcDb2dVertex
  10
-11.14667
  20
30.85172
  30
0.0
   0
VERTEX
   5
1F7
100
AcDbEntity
   8
TITLEBLOCK
   6
CONTINUOUS
  62
      9
100
AcDbVertex
100
AcDb2dVertex
  10
-11.20917
  20
30.95997
  30
0.0
   0
VERTEX
   5
1F8
100
AcDbEntity
   8
TITLEBLOCK
   6
CONTINUOUS
  62
      9
100
AcDbVertex
100
AcDb2dVertex
  10
-11.27167
  20
31.74346
  30
0.0
   0
VERTEX
   5
1F9
100
AcDbEntity
   8
TITLEBLOCK
   6
CONTINUOUS
  62
      9
100
AcDbVertex
100
AcDb2dVertex
  10
-11.20917
  20
31.85171
  30
0.0
   0
SEQEND
   5
1FA
100
AcDbEntity
   8
TITLEBLOCK
   6
CONTINUOUS
   0
POLYLINE
   5
1FB
100
AcDbEntity
   8
TITLEBLOCK
   6
CONTINUOUS
  62
      9
100
AcDb2dPolyline
  66
      1
  10
0.0
  20
0.0
  30
0.0
  70
      1
  75
      5
   0
VERTEX
   5
1FC
100
AcDbEntity
   8
TITLEBLOCK
   6
CONTINUOUS
  62
      9
100
AcDbVertex
100
AcDb2dVertex
  10
-11.27167
  20
31.74346
  30
0.0
   0
VERTEX
   5
1FD
100
AcDbEntity
   8
TITLEBLOCK
   6
CONTINUOUS
  62
      9
100
AcDbVertex
100
AcDb2dVertex
  10
-11.33417
  20
31.85171
  30
0.0
   0
VERTEX
   5
1FE
100
AcDbEntity
   8
TITLEBLOCK
   6
CONTINUOUS
  62
      9
100
AcDbVertex
100
AcDb2dVertex
  10
-11.27167
  20
30.85171
  30
0.0
   0
VERTEX
   5
1FF
100
AcDbEntity
   8
TITLEBLOCK
   6
CONTINUOUS
  62
      9
100
AcDbVertex
100
AcDb2dVertex
  10
-11.20917
  20
30.95996
  30
0.0
   0
SEQEND
   5
200
100
AcDbEntity
   8
TITLEBLOCK
   6
CONTINUOUS
   0
POLYLINE
   5
201
100
AcDbEntity
   8
TITLEBLOCK
   6
CONTINUOUS
  62
      9
100
AcDb2dPolyline
  66
      1
  10
0.0
  20
0.0
  30
0.0
  70
      1
  75
      5
   0
VERTEX
   5
202
100
AcDbEntity
   8
TITLEBLOCK
   6
CONTINUOUS
  62
      9
100
AcDbVertex
100
AcDb2dVertex
  10
-11.27167
  20
30.85171
  30
0.0
   0
VERTEX
   5
203
100
AcDbEntity
   8
TITLEBLOCK
   6
CONTINUOUS
  62
      9
100
AcDbVertex
100
AcDb2dVertex
  10
-11.33417
  20
30.95996
  30
0.0
   0
VERTEX
   5
204
100
AcDbEntity
   8
TITLEBLOCK
   6
CONTINUOUS
  62
      9
100
AcDbVertex
100
AcDb2dVertex
  10
-11.39667
  20
31.74345
  30
0.0
   0
VERTEX
   5
205
100
AcDbEntity
   8
TITLEBLOCK
   6
CONTINUOUS
  62
      9
100
AcDbVertex
100
AcDb2dVertex
  10
-11.33417
  20
31.8517
  30
0.0
   0
SEQEND
   5
206
100
AcDbEntity
   8
TITLEBLOCK
   6
CONTINUOUS
   0
POLYLINE
   5
207
100
AcDbEntity
   8
TITLEBLOCK
   6
CONTINUOUS
  62
      9
100
AcDb2dPolyline
  66
      1
  10
0.0
  20
0.0
  30
0.0
  70
      1
  75
      5
   0
VERTEX
   5
208
100
AcDbEntity
   8
TITLEBLOCK
   6
CONTINUOUS
  62
      9
100
AcDbVertex
100
AcDb2dVertex
  10
-11.39667
  20
31.74345
  30
0.0
   0
VERTEX
   5
209
100
AcDbEntity
   8
TITLEBLOCK
   6
CONTINUOUS
  62
      9
100
AcDbVertex
100
AcDb2dVertex
  10
-11.45917
  20
31.8517
  30
0.0
   0
VERTEX
   5
20A
100
AcDbEntity
   8
TITLEBLOCK
   6
CONTINUOUS
  62
      9
100
AcDbVertex
100
AcDb2dVertex
  10
-11.39667
  20
30.8517
  30
0.0
   0
VERTEX
   5
20B
100
AcDbEntity
   8
TITLEBLOCK
   6
CONTINUOUS
  62
      9
100
AcDbVertex
100
AcDb2dVertex
  10
-11.33417
  20
30.95995
  30
0.0
   0
SEQEND
   5
20C
100
AcDbEntity
   8
TITLEBLOCK
   6
CONTINUOUS
   0
POLYLINE
   5
20D
100
AcDbEntity
   8
TITLEBLOCK
   6
CONTINUOUS
  62
      9
100
AcDb2dPolyline
  66
      1
  10
0.0
  20
0.0
  30
0.0
  70
      1
  75
      5
   0
VERTEX
   5
20E
100
AcDbEntity
   8
TITLEBLOCK
   6
CONTINUOUS
  62
      9
100
AcDbVertex
100
AcDb2dVertex
  10
-11.39667
  20
30.8517
  30
0.0
   0
VERTEX
   5
20F
100
AcDbEntity
   8
TITLEBLOCK
   6
CONTINUOUS
  62
      9
100
AcDbVertex
100
AcDb2dVertex
  10
-11.45917
  20
30.95995
  30
0.0
   0
VERTEX
   5
210
100
AcDbEntity
   8
TITLEBLOCK
   6
CONTINUOUS
  62
      9
100
AcDbVertex
100
AcDb2dVertex
  10
-11.52167
  20
31.74344
  30
0.0
   0
VERTEX
   5
211
100
AcDbEntity
   8
TITLEBLOCK
   6
CONTINUOUS
  62
      9
100
AcDbVertex
100
AcDb2dVertex
  10
-11.45917
  20
31.85169
  30
0.0
   0
SEQEND
   5
212
100
AcDbEntity
   8
TITLEBLOCK
   6
CONTINUOUS
   0
POLYLINE
   5
213
100
AcDbEntity
   8
TITLEBLOCK
   6
CONTINUOUS
  62
      9
100
AcDb2dPolyline
  66
      1
  10
0.0
  20
0.0
  30
0.0
  70
      1
  75
      5
   0
VERTEX
   5
214
100
AcDbEntity
   8
TITLEBLOCK
   6
CONTINUOUS
  62
      9
100
AcDbVertex
100
AcDb2dVertex
  10
-11.52167
  20
31.74344
  30
0.0
   0
VERTEX
   5
215
100
AcDbEntity
   8
TITLEBLOCK
   6
CONTINUOUS
  62
      9
100
AcDbVertex
100
AcDb2dVertex
  10
-11.58417
  20
31.85169
  30
0.0
   0
VERTEX
   5
216
100
AcDbEntity
   8
TITLEBLOCK
   6
CONTINUOUS
  62
      9
100
AcDbVertex
100
AcDb2dVertex
  10
-11.52167
  20
30.85169
  30
0.0
   0
VERTEX
   5
217
100
AcDbEntity
   8
TITLEBLOCK
   6
CONTINUOUS
  62
      9
100
AcDbVertex
100
AcDb2dVertex
  10
-11.45917
  20
30.95994
  30
0.0
   0
SEQEND
   5
218
100
AcDbEntity
   8
TITLEBLOCK
   6
CONTINUOUS
   0
POLYLINE
   5
219
100
AcDbEntity
   8
TITLEBLOCK
   6
CONTINUOUS
  62
      9
100
AcDb2dPolyline
  66
      1
  10
0.0
  20
0.0
  30
0.0
  70
      1
  75
      5
   0
VERTEX
   5
21A
100
AcDbEntity
   8
TITLEBLOCK
   6
CONTINUOUS
  62
      9
100
AcDbVertex
100
AcDb2dVertex
  10
-11.52167
  20
30.85169
  30
0.0
   0
VERTEX
   5
21B
100
AcDbEntity
   8
TITLEBLOCK
   6
CONTINUOUS
  62
      9
100
AcDbVertex
100
AcDb2dVertex
  10
-11.58417
  20
30.95994
  30
0.0
   0
VERTEX
   5
21C
100
AcDbEntity
   8
TITLEBLOCK
   6
CONTINUOUS
  62
      9
100
AcDbVertex
100
AcDb2dVertex
  10
-11.64667
  20
31.74343
  30
0.0
   0
VERTEX
   5
21D
100
AcDbEntity
   8
TITLEBLOCK
   6
CONTINUOUS
  62
      9
100
AcDbVertex
100
AcDb2dVertex
  10
-11.58417
  20
31.85168
  30
0.0
   0
SEQEND
   5
21E
100
AcDbEntity
   8
TITLEBLOCK
   6
CONTINUOUS
   0
POLYLINE
   5
21F
100
AcDbEntity
   8
TITLEBLOCK
   6
CONTINUOUS
  62
      9
100
AcDb2dPolyline
  66
      1
  10
0.0
  20
0.0
  30
0.0
  70
      1
  75
      5
   0
VERTEX
   5
220
100
AcDbEntity
   8
TITLEBLOCK
   6
CONTINUOUS
  62
      9
100
AcDbVertex
100
AcDb2dVertex
  10
-11.64667
  20
31.74343
  30
0.0
   0
VERTEX
   5
221
100
AcDbEntity
   8
TITLEBLOCK
   6
CONTINUOUS
  62
      9
100
AcDbVertex
100
AcDb2dVertex
  10
-11.70917
  20
31.85168
  30
0.0
   0
VERTEX
   5
222
100
AcDbEntity
   8
TITLEBLOCK
   6
CONTINUOUS
  62
      9
100
AcDbVertex
100
AcDb2dVertex
  10
-11.64667
  20
30.85168
  30
0.0
   0
VERTEX
   5
223
100
AcDbEntity
   8
TITLEBLOCK
   6
CONTINUOUS
  62
      9
100
AcDbVertex
100
AcDb2dVertex
  10
-11.58417
  20
30.95993
  30
0.0
   0
SEQEND
   5
224
100
AcDbEntity
   8
TITLEBLOCK
   6
CONTINUOUS
   0
POLYLINE
   5
225
100
AcDbEntity
   8
TITLEBLOCK
   6
CONTINUOUS
  62
      9
100
AcDb2dPolyline
  66
      1
  10
0.0
  20
0.0
  30
0.0
  70
      1
  75
      5
   0
VERTEX
   5
226
100
AcDbEntity
   8
TITLEBLOCK
   6
CONTINUOUS
  62
      9
100
AcDbVertex
100
AcDb2dVertex
  10
-11.64667
  20
30.85168
  30
0.0
   0
VERTEX
   5
227
100
AcDbEntity
   8
TITLEBLOCK
   6
CONTINUOUS
  62
      9
100
AcDbVertex
100
AcDb2dVertex
  10
-11.70917
  20
30.95993
  30
0.0
   0
VERTEX
   5
228
100
AcDbEntity
   8
TITLEBLOCK
   6
CONTINUOUS
  62
      9
100
AcDbVertex
100
AcDb2dVertex
  10
-11.77167
  20
31.74342
  30
0.0
   0
VERTEX
   5
229
100
AcDbEntity
   8
TITLEBLOCK
   6
CONTINUOUS
  62
      9
100
AcDbVertex
100
AcDb2dVertex
  10
-11.70917
  20
31.85167
  30
0.0
   0
SEQEND
   5
22A
100
AcDbEntity
   8
TITLEBLOCK
   6
CONTINUOUS
   0
POLYLINE
   5
22B
100
AcDbEntity
   8
TITLEBLOCK
   6
CONTINUOUS
  62
      9
100
AcDb2dPolyline
  66
      1
  10
0.0
  20
0.0
  30
0.0
  70
      1
  75
      5
   0
VERTEX
   5
22C
100
AcDbEntity
   8
TITLEBLOCK
   6
CONTINUOUS
  62
      9
100
AcDbVertex
100
AcDb2dVertex
  10
-11.77167
  20
31.74342
  30
0.0
   0
VERTEX
   5
22D
100
AcDbEntity
   8
TITLEBLOCK
   6
CONTINUOUS
  62
      9
100
AcDbVertex
100
AcDb2dVertex
  10
-11.83417
  20
31.85167
  30
0.0
   0
VERTEX
   5
22E
100
AcDbEntity
   8
TITLEBLOCK
   6
CONTINUOUS
  62
      9
100
AcDbVertex
100
AcDb2dVertex
  10
-11.77167
  20
30.85167
  30
0.0
   0
VERTEX
   5
22F
100
AcDbEntity
   8
TITLEBLOCK
   6
CONTINUOUS
  62
      9
100
AcDbVertex
100
AcDb2dVertex
  10
-11.70917
  20
30.95992
  30
0.0
   0
SEQEND
   5
230
100
AcDbEntity
   8
TITLEBLOCK
   6
CONTINUOUS
   0
POLYLINE
   5
231
100
AcDbEntity
   8
TITLEBLOCK
   6
CONTINUOUS
  62
      9
100
AcDb2dPolyline
  66
      1
  10
0.0
  20
0.0
  30
0.0
  70
      1
  75
      5
   0
VERTEX
   5
232
100
AcDbEntity
   8
TITLEBLOCK
   6
CONTINUOUS
  62
      9
100
AcDbVertex
100
AcDb2dVertex
  10
-11.77167
  20
30.85167
  30
0.0
   0
VERTEX
   5
233
100
AcDbEntity
   8
TITLEBLOCK
   6
CONTINUOUS
  62
      9
100
AcDbVertex
100
AcDb2dVertex
  10
-11.83417
  20
30.95992
  30
0.0
   0
VERTEX
   5
234
100
AcDbEntity
   8
TITLEBLOCK
   6
CONTINUOUS
  62
      9
100
AcDbVertex
100
AcDb2dVertex
  10
-11.89667
  20
31.74341
  30
0.0
   0
VERTEX
   5
235
100
AcDbEntity
   8
TITLEBLOCK
   6
CONTINUOUS
  62
      9
100
AcDbVertex
100
AcDb2dVertex
  10
-11.83417
  20
31.85166
  30
0.0
   0
SEQEND
   5
236
100
AcDbEntity
   8
TITLEBLOCK
   6
CONTINUOUS
   0
POLYLINE
   5
237
100
AcDbEntity
   8
TITLEBLOCK
   6
CONTINUOUS
  62
      9
100
AcDb2dPolyline
  66
      1
  10
0.0
  20
0.0
  30
0.0
  70
      1
  75
      5
   0
VERTEX
   5
238
100
AcDbEntity
   8
TITLEBLOCK
   6
CONTINUOUS
  62
      9
100
AcDbVertex
100
AcDb2dVertex
  10
-11.89667
  20
31.74341
  30
0.0
   0
VERTEX
   5
239
100
AcDbEntity
   8
TITLEBLOCK
   6
CONTINUOUS
  62
      9
100
AcDbVertex
100
AcDb2dVertex
  10
-11.95917
  20
31.85166
  30
0.0
   0
VERTEX
   5
23A
100
AcDbEntity
   8
TITLEBLOCK
   6
CONTINUOUS
  62
      9
100
AcDbVertex
100
AcDb2dVertex
  10
-11.89667
  20
30.85166
  30
0.0
   0
VERTEX
   5
23B
100
AcDbEntity
   8
TITLEBLOCK
   6
CONTINUOUS
  62
      9
100
AcDbVertex
100
AcDb2dVertex
  10
-11.83417
  20
30.95991
  30
0.0
   0
SEQEND
   5
23C
100
AcDbEntity
   8
TITLEBLOCK
   6
CONTINUOUS
   0
POLYLINE
   5
23D
100
AcDbEntity
   8
TITLEBLOCK
   6
CONTINUOUS
  62
      9
100
AcDb2dPolyline
  66
      1
  10
0.0
  20
0.0
  30
0.0
  70
      1
  75
      5
   0
VERTEX
   5
23E
100
AcDbEntity
   8
TITLEBLOCK
   6
CONTINUOUS
  62
      9
100
AcDbVertex
100
AcDb2dVertex
  10
-11.89667
  20
30.85166
  30
0.0
   0
VERTEX
   5
23F
100
AcDbEntity
   8
TITLEBLOCK
   6
CONTINUOUS
  62
      9
100
AcDbVertex
100
AcDb2dVertex
  10
-11.95917
  20
30.95991
  30
0.0
   0
VERTEX
   5
240
100
AcDbEntity
   8
TITLEBLOCK
   6
CONTINUOUS
  62
      9
100
AcDbVertex
100
AcDb2dVertex
  10
-12.02167
  20
31.7434
  30
0.0
   0
VERTEX
   5
241
100
AcDbEntity
   8
TITLEBLOCK
   6
CONTINUOUS
  62
      9
100
AcDbVertex
100
AcDb2dVertex
  10
-11.95917
  20
31.85165
  30
0.0
   0
SEQEND
   5
242
100
AcDbEntity
   8
TITLEBLOCK
   6
CONTINUOUS
   0
POLYLINE
   5
243
100
AcDbEntity
   8
TITLEBLOCK
   6
CONTINUOUS
  62
      9
100
AcDb2dPolyline
  66
      1
  10
0.0
  20
0.0
  30
0.0
  70
      1
  75
      5
   0
VERTEX
   5
244
100
AcDbEntity
   8
TITLEBLOCK
   6
CONTINUOUS
  62
      9
100
AcDbVertex
100
AcDb2dVertex
  10
-12.02167
  20
31.7434
  30
0.0
   0
VERTEX
   5
245
100
AcDbEntity
   8
TITLEBLOCK
   6
CONTINUOUS
  62
      9
100
AcDbVertex
100
AcDb2dVertex
  10
-12.08417
  20
31.85165
  30
0.0
   0
VERTEX
   5
246
100
AcDbEntity
   8
TITLEBLOCK
   6
CONTINUOUS
  62
      9
100
AcDbVertex
100
AcDb2dVertex
  10
-12.02167
  20
30.85165
  30
0.0
   0
VERTEX
   5
247
100
AcDbEntity
   8
TITLEBLOCK
   6
CONTINUOUS
  62
      9
100
AcDbVertex
100
AcDb2dVertex
  10
-11.95917
  20
30.9599
  30
0.0
   0
SEQEND
   5
248
100
AcDbEntity
   8
TITLEBLOCK
   6
CONTINUOUS
   0
POLYLINE
   5
249
100
AcDbEntity
   8
TITLEBLOCK
   6
CONTINUOUS
  62
      9
100
AcDb2dPolyline
  66
      1
  10
0.0
  20
0.0
  30
0.0
  70
      1
  75
      5
   0
VERTEX
   5
24A
100
AcDbEntity
   8
TITLEBLOCK
   6
CONTINUOUS
  62
      9
100
AcDbVertex
100
AcDb2dVertex
  10
-12.02167
  20
30.85165
  30
0.0
   0
VERTEX
   5
24B
100
AcDbEntity
   8
TITLEBLOCK
   6
CONTINUOUS
  62
      9
100
AcDbVertex
100
AcDb2dVertex
  10
-12.08417
  20
30.9599
  30
0.0
   0
VERTEX
   5
24C
100
AcDbEntity
   8
TITLEBLOCK
   6
CONTINUOUS
  62
      9
100
AcDbVertex
100
AcDb2dVertex
  10
-12.14667
  20
31.74339
  30
0.0
   0
VERTEX
   5
24D
100
AcDbEntity
   8
TITLEBLOCK
   6
CONTINUOUS
  62
      9
100
AcDbVertex
100
AcDb2dVertex
  10
-12.08417
  20
31.85164
  30
0.0
   0
SEQEND
   5
24E
100
AcDbEntity
   8
TITLEBLOCK
   6
CONTINUOUS
   0
POLYLINE
   5
24F
100
AcDbEntity
   8
TITLEBLOCK
   6
CONTINUOUS
  62
      9
100
AcDb2dPolyline
  66
      1
  10
0.0
  20
0.0
  30
0.0
  70
      1
  75
      5
   0
VERTEX
   5
250
100
AcDbEntity
   8
TITLEBLOCK
   6
CONTINUOUS
  62
      9
100
AcDbVertex
100
AcDb2dVertex
  10
-12.14667
  20
31.74339
  30
0.0
   0
VERTEX
   5
251
100
AcDbEntity
   8
TITLEBLOCK
   6
CONTINUOUS
  62
      9
100
AcDbVertex
100
AcDb2dVertex
  10
-12.20917
  20
31.85164
  30
0.0
   0
VERTEX
   5
252
100
AcDbEntity
   8
TITLEBLOCK
   6
CONTINUOUS
  62
      9
100
AcDbVertex
100
AcDb2dVertex
  10
-12.14667
  20
30.85164
  30
0.0
   0
VERTEX
   5
253
100
AcDbEntity
   8
TITLEBLOCK
   6
CONTINUOUS
  62
      9
100
AcDbVertex
100
AcDb2dVertex
  10
-12.08417
  20
30.95989
  30
0.0
   0
SEQEND
   5
254
100
AcDbEntity
   8
TITLEBLOCK
   6
CONTINUOUS
   0
POLYLINE
   5
255
100
AcDbEntity
   8
TITLEBLOCK
   6
CONTINUOUS
  62
      9
100
AcDb2dPolyline
  66
      1
  10
0.0
  20
0.0
  30
0.0
  70
      1
  75
      5
   0
VERTEX
   5
256
100
AcDbEntity
   8
TITLEBLOCK
   6
CONTINUOUS
  62
      9
100
AcDbVertex
100
AcDb2dVertex
  10
-12.14667
  20
30.85164
  30
0.0
   0
VERTEX
   5
257
100
AcDbEntity
   8
TITLEBLOCK
   6
CONTINUOUS
  62
      9
100
AcDbVertex
100
AcDb2dVertex
  10
-12.20917
  20
30.95989
  30
0.0
   0
VERTEX
   5
258
100
AcDbEntity
   8
TITLEBLOCK
   6
CONTINUOUS
  62
      9
100
AcDbVertex
100
AcDb2dVertex
  10
-12.27167
  20
31.74338
  30
0.0
   0
VERTEX
   5
259
100
AcDbEntity
   8
TITLEBLOCK
   6
CONTINUOUS
  62
      9
100
AcDbVertex
100
AcDb2dVertex
  10
-12.20917
  20
31.85163
  30
0.0
   0
SEQEND
   5
25A
100
AcDbEntity
   8
TITLEBLOCK
   6
CONTINUOUS
   0
POLYLINE
   5
25B
100
AcDbEntity
   8
TITLEBLOCK
   6
CONTINUOUS
  62
      9
100
AcDb2dPolyline
  66
      1
  10
0.0
  20
0.0
  30
0.0
  70
      1
  75
      5
   0
VERTEX
   5
25C
100
AcDbEntity
   8
TITLEBLOCK
   6
CONTINUOUS
  62
      9
100
AcDbVertex
100
AcDb2dVertex
  10
-12.27167
  20
31.74338
  30
0.0
   0
VERTEX
   5
25D
100
AcDbEntity
   8
TITLEBLOCK
   6
CONTINUOUS
  62
      9
100
AcDbVertex
100
AcDb2dVertex
  10
-12.33417
  20
31.85163
  30
0.0
   0
VERTEX
   5
25E
100
AcDbEntity
   8
TITLEBLOCK
   6
CONTINUOUS
  62
      9
100
AcDbVertex
100
AcDb2dVertex
  10
-12.27167
  20
30.85163
  30
0.0
   0
VERTEX
   5
25F
100
AcDbEntity
   8
TITLEBLOCK
   6
CONTINUOUS
  62
      9
100
AcDbVertex
100
AcDb2dVertex
  10
-12.20917
  20
30.95988
  30
0.0
   0
SEQEND
   5
260
100
AcDbEntity
   8
TITLEBLOCK
   6
CONTINUOUS
   0
POLYLINE
   5
261
100
AcDbEntity
   8
TITLEBLOCK
   6
CONTINUOUS
  62
      9
100
AcDb2dPolyline
  66
      1
  10
0.0
  20
0.0
  30
0.0
  70
      1
  75
      5
   0
VERTEX
   5
262
100
AcDbEntity
   8
TITLEBLOCK
   6
CONTINUOUS
  62
      9
100
AcDbVertex
100
AcDb2dVertex
  10
-12.27167
  20
30.85163
  30
0.0
   0
VERTEX
   5
263
100
AcDbEntity
   8
TITLEBLOCK
   6
CONTINUOUS
  62
      9
100
AcDbVertex
100
AcDb2dVertex
  10
-12.33417
  20
30.95988
  30
0.0
   0
VERTEX
   5
264
100
AcDbEntity
   8
TITLEBLOCK
   6
CONTINUOUS
  62
      9
100
AcDbVertex
100
AcDb2dVertex
  10
-12.39667
  20
31.74337
  30
0.0
   0
VERTEX
   5
265
100
AcDbEntity
   8
TITLEBLOCK
   6
CONTINUOUS
  62
      9
100
AcDbVertex
100
AcDb2dVertex
  10
-12.33417
  20
31.85162
  30
0.0
   0
SEQEND
   5
266
100
AcDbEntity
   8
TITLEBLOCK
   6
CONTINUOUS
   0
POLYLINE
   5
267
100
AcDbEntity
   8
TITLEBLOCK
   6
CONTINUOUS
  62
      9
100
AcDb2dPolyline
  66
      1
  10
0.0
  20
0.0
  30
0.0
  70
      1
  75
      5
   0
VERTEX
   5
268
100
AcDbEntity
   8
TITLEBLOCK
   6
CONTINUOUS
  62
      9
100
AcDbVertex
100
AcDb2dVertex
  10
-12.39667
  20
31.74337
  30
0.0
   0
VERTEX
   5
269
100
AcDbEntity
   8
TITLEBLOCK
   6
CONTINUOUS
  62
      9
100
AcDbVertex
100
AcDb2dVertex
  10
-12.45917
  20
31.85162
  30
0.0
   0
VERTEX
   5
26A
100
AcDbEntity
   8
TITLEBLOCK
   6
CONTINUOUS
  62
      9
100
AcDbVertex
100
AcDb2dVertex
  10
-12.39667
  20
30.85162
  30
0.0
   0
VERTEX
   5
26B
100
AcDbEntity
   8
TITLEBLOCK
   6
CONTINUOUS
  62
      9
100
AcDbVertex
100
AcDb2dVertex
  10
-12.33417
  20
30.95987
  30
0.0
   0
SEQEND
   5
26C
100
AcDbEntity
   8
TITLEBLOCK
   6
CONTINUOUS
   0
POLYLINE
   5
26D
100
AcDbEntity
   8
TITLEBLOCK
   6
CONTINUOUS
  62
      9
100
AcDb2dPolyline
  66
      1
  10
0.0
  20
0.0
  30
0.0
  70
      1
  75
      5
   0
VERTEX
   5
26E
100
AcDbEntity
   8
TITLEBLOCK
   6
CONTINUOUS
  62
      9
100
AcDbVertex
100
AcDb2dVertex
  10
-12.39667
  20
30.85162
  30
0.0
   0
VERTEX
   5
26F
100
AcDbEntity
   8
TITLEBLOCK
   6
CONTINUOUS
  62
      9
100
AcDbVertex
100
AcDb2dVertex
  10
-12.45917
  20
30.95987
  30
0.0
   0
VERTEX
   5
270
100
AcDbEntity
   8
TITLEBLOCK
   6
CONTINUOUS
  62
      9
100
AcDbVertex
100
AcDb2dVertex
  10
-12.52167
  20
31.74336
  30
0.0
   0
VERTEX
   5
271
100
AcDbEntity
   8
TITLEBLOCK
   6
CONTINUOUS
  62
      9
100
AcDbVertex
100
AcDb2dVertex
  10
-12.45917
  20
31.85161
  30
0.0
   0
SEQEND
   5
272
100
AcDbEntity
   8
TITLEBLOCK
   6
CONTINUOUS
   0
POLYLINE
   5
273
100
AcDbEntity
   8
TITLEBLOCK
   6
CONTINUOUS
  62
      9
100
AcDb2dPolyline
  66
      1
  10
0.0
  20
0.0
  30
0.0
  70
      1
  75
      5
   0
VERTEX
   5
274
100
AcDbEntity
   8
TITLEBLOCK
   6
CONTINUOUS
  62
      9
100
AcDbVertex
100
AcDb2dVertex
  10
-12.52167
  20
31.74336
  30
0.0
   0
VERTEX
   5
275
100
AcDbEntity
   8
TITLEBLOCK
   6
CONTINUOUS
  62
      9
100
AcDbVertex
100
AcDb2dVertex
  10
-12.58417
  20
31.85161
  30
0.0
   0
VERTEX
   5
276
100
AcDbEntity
   8
TITLEBLOCK
   6
CONTINUOUS
  62
      9
100
AcDbVertex
100
AcDb2dVertex
  10
-12.52167
  20
30.85161
  30
0.0
   0
VERTEX
   5
277
100
AcDbEntity
   8
TITLEBLOCK
   6
CONTINUOUS
  62
      9
100
AcDbVertex
100
AcDb2dVertex
  10
-12.45917
  20
30.95986
  30
0.0
   0
SEQEND
   5
278
100
AcDbEntity
   8
TITLEBLOCK
   6
CONTINUOUS
   0
POLYLINE
   5
279
100
AcDbEntity
   8
TITLEBLOCK
   6
CONTINUOUS
  62
      9
100
AcDb2dPolyline
  66
      1
  10
0.0
  20
0.0
  30
0.0
  70
      1
  75
      5
   0
VERTEX
   5
27A
100
AcDbEntity
   8
TITLEBLOCK
   6
CONTINUOUS
  62
      9
100
AcDbVertex
100
AcDb2dVertex
  10
-12.52167
  20
30.85161
  30
0.0
   0
VERTEX
   5
27B
100
AcDbEntity
   8
TITLEBLOCK
   6
CONTINUOUS
  62
      9
100
AcDbVertex
100
AcDb2dVertex
  10
-12.58417
  20
30.95986
  30
0.0
   0
VERTEX
   5
27C
100
AcDbEntity
   8
TITLEBLOCK
   6
CONTINUOUS
  62
      9
100
AcDbVertex
100
AcDb2dVertex
  10
-12.64667
  20
31.74335
  30
0.0
   0
VERTEX
   5
27D
100
AcDbEntity
   8
TITLEBLOCK
   6
CONTINUOUS
  62
      9
100
AcDbVertex
100
AcDb2dVertex
  10
-12.58417
  20
31.8516
  30
0.0
   0
SEQEND
   5
27E
100
AcDbEntity
   8
TITLEBLOCK
   6
CONTINUOUS
   0
POLYLINE
   5
27F
100
AcDbEntity
   8
TITLEBLOCK
   6
CONTINUOUS
  62
      9
100
AcDb2dPolyline
  66
      1
  10
0.0
  20
0.0
  30
0.0
  70
      1
  75
      5
   0
VERTEX
   5
280
100
AcDbEntity
   8
TITLEBLOCK
   6
CONTINUOUS
  62
      9
100
AcDbVertex
100
AcDb2dVertex
  10
-12.64667
  20
31.74335
  30
0.0
   0
VERTEX
   5
281
100
AcDbEntity
   8
TITLEBLOCK
   6
CONTINUOUS
  62
      9
100
AcDbVertex
100
AcDb2dVertex
  10
-12.70917
  20
31.8516
  30
0.0
   0
VERTEX
   5
282
100
AcDbEntity
   8
TITLEBLOCK
   6
CONTINUOUS
  62
      9
100
AcDbVertex
100
AcDb2dVertex
  10
-12.64667
  20
30.8516
  30
0.0
   0
VERTEX
   5
283
100
AcDbEntity
   8
TITLEBLOCK
   6
CONTINUOUS
  62
      9
100
AcDbVertex
100
AcDb2dVertex
  10
-12.58417
  20
30.95985
  30
0.0
   0
SEQEND
   5
284
100
AcDbEntity
   8
TITLEBLOCK
   6
CONTINUOUS
   0
POLYLINE
   5
285
100
AcDbEntity
   8
TITLEBLOCK
   6
CONTINUOUS
  62
      9
100
AcDb2dPolyline
  66
      1
  10
0.0
  20
0.0
  30
0.0
  70
      1
  75
      5
   0
VERTEX
   5
286
100
AcDbEntity
   8
TITLEBLOCK
   6
CONTINUOUS
  62
      9
100
AcDbVertex
100
AcDb2dVertex
  10
-12.64667
  20
30.8516
  30
0.0
   0
VERTEX
   5
287
100
AcDbEntity
   8
TITLEBLOCK
   6
CONTINUOUS
  62
      9
100
AcDbVertex
100
AcDb2dVertex
  10
-12.70917
  20
30.95985
  30
0.0
   0
VERTEX
   5
288
100
AcDbEntity
   8
TITLEBLOCK
   6
CONTINUOUS
  62
      9
100
AcDbVertex
100
AcDb2dVertex
  10
-12.77167
  20
31.74334
  30
0.0
   0
VERTEX
   5
289
100
AcDbEntity
   8
TITLEBLOCK
   6
CONTINUOUS
  62
      9
100
AcDbVertex
100
AcDb2dVertex
  10
-12.70917
  20
31.85159
  30
0.0
   0
SEQEND
   5
28A
100
AcDbEntity
   8
TITLEBLOCK
   6
CONTINUOUS
   0
POLYLINE
   5
28B
100
AcDbEntity
   8
TITLEBLOCK
   6
CONTINUOUS
  62
      9
100
AcDb2dPolyline
  66
      1
  10
0.0
  20
0.0
  30
0.0
  70
      1
  75
      5
   0
VERTEX
   5
28C
100
AcDbEntity
   8
TITLEBLOCK
   6
CONTINUOUS
  62
      9
100
AcDbVertex
100
AcDb2dVertex
  10
-12.77167
  20
31.74334
  30
0.0
   0
VERTEX
   5
28D
100
AcDbEntity
   8
TITLEBLOCK
   6
CONTINUOUS
  62
      9
100
AcDbVertex
100
AcDb2dVertex
  10
-12.83417
  20
31.85159
  30
0.0
   0
VERTEX
   5
28E
100
AcDbEntity
   8
TITLEBLOCK
   6
CONTINUOUS
  62
      9
100
AcDbVertex
100
AcDb2dVertex
  10
-12.77167
  20
30.85159
  30
0.0
   0
VERTEX
   5
28F
100
AcDbEntity
   8
TITLEBLOCK
   6
CONTINUOUS
  62
      9
100
AcDbVertex
100
AcDb2dVertex
  10
-12.70917
  20
30.95984
  30
0.0
   0
SEQEND
   5
290
100
AcDbEntity
   8
TITLEBLOCK
   6
CONTINUOUS
   0
POLYLINE
   5
291
100
AcDbEntity
   8
TITLEBLOCK
   6
CONTINUOUS
  62
      9
100
AcDb2dPolyline
  66
      1
  10
0.0
  20
0.0
  30
0.0
  70
      1
  75
      5
   0
VERTEX
   5
292
100
AcDbEntity
   8
TITLEBLOCK
   6
CONTINUOUS
  62
      9
100
AcDbVertex
100
AcDb2dVertex
  10
-12.77167
  20
30.85159
  30
0.0
   0
VERTEX
   5
293
100
AcDbEntity
   8
TITLEBLOCK
   6
CONTINUOUS
  62
      9
100
AcDbVertex
100
AcDb2dVertex
  10
-12.83417
  20
30.95984
  30
0.0
   0
VERTEX
   5
294
100
AcDbEntity
   8
TITLEBLOCK
   6
CONTINUOUS
  62
      9
100
AcDbVertex
100
AcDb2dVertex
  10
-12.89667
  20
31.74333
  30
0.0
   0
VERTEX
   5
295
100
AcDbEntity
   8
TITLEBLOCK
   6
CONTINUOUS
  62
      9
100
AcDbVertex
100
AcDb2dVertex
  10
-12.83417
  20
31.85158
  30
0.0
   0
SEQEND
   5
296
100
AcDbEntity
   8
TITLEBLOCK
   6
CONTINUOUS
   0
POLYLINE
   5
297
100
AcDbEntity
   8
TITLEBLOCK
   6
CONTINUOUS
  62
      9
100
AcDb2dPolyline
  66
      1
  10
0.0
  20
0.0
  30
0.0
  70
      1
  75
      5
   0
VERTEX
   5
298
100
AcDbEntity
   8
TITLEBLOCK
   6
CONTINUOUS
  62
      9
100
AcDbVertex
100
AcDb2dVertex
  10
-12.89667
  20
31.74333
  30
0.0
   0
VERTEX
   5
299
100
AcDbEntity
   8
TITLEBLOCK
   6
CONTINUOUS
  62
      9
100
AcDbVertex
100
AcDb2dVertex
  10
-12.95917
  20
31.85158
  30
0.0
   0
VERTEX
   5
29A
100
AcDbEntity
   8
TITLEBLOCK
   6
CONTINUOUS
  62
      9
100
AcDbVertex
100
AcDb2dVertex
  10
-12.89667
  20
30.85158
  30
0.0
   0
VERTEX
   5
29B
100
AcDbEntity
   8
TITLEBLOCK
   6
CONTINUOUS
  62
      9
100
AcDbVertex
100
AcDb2dVertex
  10
-12.83417
  20
30.95983
  30
0.0
   0
SEQEND
   5
29C
100
AcDbEntity
   8
TITLEBLOCK
   6
CONTINUOUS
   0
POLYLINE
   5
29D
100
AcDbEntity
   8
TITLEBLOCK
   6
CONTINUOUS
  62
      9
100
AcDb2dPolyline
  66
      1
  10
0.0
  20
0.0
  30
0.0
  70
      1
  75
      5
   0
VERTEX
   5
29E
100
AcDbEntity
   8
TITLEBLOCK
   6
CONTINUOUS
  62
      9
100
AcDbVertex
100
AcDb2dVertex
  10
-12.89667
  20
30.85158
  30
0.0
   0
VERTEX
   5
29F
100
AcDbEntity
   8
TITLEBLOCK
   6
CONTINUOUS
  62
      9
100
AcDbVertex
100
AcDb2dVertex
  10
-12.95917
  20
30.95983
  30
0.0
   0
VERTEX
   5
2A0
100
AcDbEntity
   8
TITLEBLOCK
   6
CONTINUOUS
  62
      9
100
AcDbVertex
100
AcDb2dVertex
  10
-13.02167
  20
31.74332
  30
0.0
   0
VERTEX
   5
2A1
100
AcDbEntity
   8
TITLEBLOCK
   6
CONTINUOUS
  62
      9
100
AcDbVertex
100
AcDb2dVertex
  10
-12.95917
  20
31.85157
  30
0.0
   0
SEQEND
   5
2A2
100
AcDbEntity
   8
TITLEBLOCK
   6
CONTINUOUS
   0
POLYLINE
   5
2A3
100
AcDbEntity
   8
TITLEBLOCK
   6
CONTINUOUS
  62
      9
100
AcDb2dPolyline
  66
      1
  10
0.0
  20
0.0
  30
0.0
  70
      1
  75
      5
   0
VERTEX
   5
2A4
100
AcDbEntity
   8
TITLEBLOCK
   6
CONTINUOUS
  62
      9
100
AcDbVertex
100
AcDb2dVertex
  10
-13.02167
  20
31.74332
  30
0.0
   0
VERTEX
   5
2A5
100
AcDbEntity
   8
TITLEBLOCK
   6
CONTINUOUS
  62
      9
100
AcDbVertex
100
AcDb2dVertex
  10
-13.08417
  20
31.85157
  30
0.0
   0
VERTEX
   5
2A6
100
AcDbEntity
   8
TITLEBLOCK
   6
CONTINUOUS
  62
      9
100
AcDbVertex
100
AcDb2dVertex
  10
-13.02167
  20
30.85157
  30
0.0
   0
VERTEX
   5
2A7
100
AcDbEntity
   8
TITLEBLOCK
   6
CONTINUOUS
  62
      9
100
AcDbVertex
100
AcDb2dVertex
  10
-12.95917
  20
30.95982
  30
0.0
   0
SEQEND
   5
2A8
100
AcDbEntity
   8
TITLEBLOCK
   6
CONTINUOUS
   0
POLYLINE
   5
2A9
100
AcDbEntity
   8
TITLEBLOCK
   6
CONTINUOUS
  62
      9
100
AcDb2dPolyline
  66
      1
  10
0.0
  20
0.0
  30
0.0
  70
      1
  75
      5
   0
VERTEX
   5
2AA
100
AcDbEntity
   8
TITLEBLOCK
   6
CONTINUOUS
  62
      9
100
AcDbVertex
100
AcDb2dVertex
  10
-13.02167
  20
30.85157
  30
0.0
   0
VERTEX
   5
2AB
100
AcDbEntity
   8
TITLEBLOCK
   6
CONTINUOUS
  62
      9
100
AcDbVertex
100
AcDb2dVertex
  10
-13.08417
  20
30.95982
  30
0.0
   0
VERTEX
   5
2AC
100
AcDbEntity
   8
TITLEBLOCK
   6
CONTINUOUS
  62
      9
100
AcDbVertex
100
AcDb2dVertex
  10
-13.14667
  20
31.74331
  30
0.0
   0
VERTEX
   5
2AD
100
AcDbEntity
   8
TITLEBLOCK
   6
CONTINUOUS
  62
      9
100
AcDbVertex
100
AcDb2dVertex
  10
-13.08417
  20
31.85156
  30
0.0
   0
SEQEND
   5
2AE
100
AcDbEntity
   8
TITLEBLOCK
   6
CONTINUOUS
   0
POLYLINE
   5
2AF
100
AcDbEntity
   8
TITLEBLOCK
   6
CONTINUOUS
  62
      9
100
AcDb2dPolyline
  66
      1
  10
0.0
  20
0.0
  30
0.0
  70
      1
  75
      5
   0
VERTEX
   5
2B0
100
AcDbEntity
   8
TITLEBLOCK
   6
CONTINUOUS
  62
      9
100
AcDbVertex
100
AcDb2dVertex
  10
-13.14667
  20
31.74331
  30
0.0
   0
VERTEX
   5
2B1
100
AcDbEntity
   8
TITLEBLOCK
   6
CONTINUOUS
  62
      9
100
AcDbVertex
100
AcDb2dVertex
  10
-13.20917
  20
31.85156
  30
0.0
   0
VERTEX
   5
2B2
100
AcDbEntity
   8
TITLEBLOCK
   6
CONTINUOUS
  62
      9
100
AcDbVertex
100
AcDb2dVertex
  10
-13.14667
  20
30.85156
  30
0.0
   0
VERTEX
   5
2B3
100
AcDbEntity
   8
TITLEBLOCK
   6
CONTINUOUS
  62
      9
100
AcDbVertex
100
AcDb2dVertex
  10
-13.08417
  20
30.95981
  30
0.0
   0
SEQEND
   5
2B4
100
AcDbEntity
   8
TITLEBLOCK
   6
CONTINUOUS
   0
POLYLINE
   5
2B5
100
AcDbEntity
   8
TITLEBLOCK
   6
CONTINUOUS
  62
      9
100
AcDb2dPolyline
  66
      1
  10
0.0
  20
0.0
  30
0.0
  70
      1
  75
      5
   0
VERTEX
   5
2B6
100
AcDbEntity
   8
TITLEBLOCK
   6
CONTINUOUS
  62
      9
100
AcDbVertex
100
AcDb2dVertex
  10
-13.14667
  20
30.85156
  30
0.0
   0
VERTEX
   5
2B7
100
AcDbEntity
   8
TITLEBLOCK
   6
CONTINUOUS
  62
      9
100
AcDbVertex
100
AcDb2dVertex
  10
-13.20917
  20
30.95981
  30
0.0
   0
VERTEX
   5
2B8
100
AcDbEntity
   8
TITLEBLOCK
   6
CONTINUOUS
  62
      9
100
AcDbVertex
100
AcDb2dVertex
  10
-13.27167
  20
31.7433
  30
0.0
   0
VERTEX
   5
2B9
100
AcDbEntity
   8
TITLEBLOCK
   6
CONTINUOUS
  62
      9
100
AcDbVertex
100
AcDb2dVertex
  10
-13.20917
  20
31.85155
  30
0.0
   0
SEQEND
   5
2BA
100
AcDbEntity
   8
TITLEBLOCK
   6
CONTINUOUS
   0
POLYLINE
   5
2BB
100
AcDbEntity
   8
TITLEBLOCK
   6
CONTINUOUS
  62
      9
100
AcDb2dPolyline
  66
      1
  10
0.0
  20
0.0
  30
0.0
  70
      1
  75
      5
   0
VERTEX
   5
2BC
100
AcDbEntity
   8
TITLEBLOCK
   6
CONTINUOUS
  62
      9
100
AcDbVertex
100
AcDb2dVertex
  10
-13.27167
  20
31.7433
  30
0.0
   0
VERTEX
   5
2BD
100
AcDbEntity
   8
TITLEBLOCK
   6
CONTINUOUS
  62
      9
100
AcDbVertex
100
AcDb2dVertex
  10
-13.33417
  20
31.85155
  30
0.0
   0
VERTEX
   5
2BE
100
AcDbEntity
   8
TITLEBLOCK
   6
CONTINUOUS
  62
      9
100
AcDbVertex
100
AcDb2dVertex
  10
-13.27167
  20
30.85155
  30
0.0
   0
VERTEX
   5
2BF
100
AcDbEntity
   8
TITLEBLOCK
   6
CONTINUOUS
  62
      9
100
AcDbVertex
100
AcDb2dVertex
  10
-13.20917
  20
30.9598
  30
0.0
   0
SEQEND
   5
2C0
100
AcDbEntity
   8
TITLEBLOCK
   6
CONTINUOUS
   0
POLYLINE
   5
2C1
100
AcDbEntity
   8
TITLEBLOCK
   6
CONTINUOUS
  62
      9
100
AcDb2dPolyline
  66
      1
  10
0.0
  20
0.0
  30
0.0
  70
      1
  75
      5
   0
VERTEX
   5
2C2
100
AcDbEntity
   8
TITLEBLOCK
   6
CONTINUOUS
  62
      9
100
AcDbVertex
100
AcDb2dVertex
  10
-13.27167
  20
30.85155
  30
0.0
   0
VERTEX
   5
2C3
100
AcDbEntity
   8
TITLEBLOCK
   6
CONTINUOUS
  62
      9
100
AcDbVertex
100
AcDb2dVertex
  10
-13.33417
  20
30.9598
  30
0.0
   0
VERTEX
   5
2C4
100
AcDbEntity
   8
TITLEBLOCK
   6
CONTINUOUS
  62
      9
100
AcDbVertex
100
AcDb2dVertex
  10
-13.39667
  20
31.74329
  30
0.0
   0
VERTEX
   5
2C5
100
AcDbEntity
   8
TITLEBLOCK
   6
CONTINUOUS
  62
      9
100
AcDbVertex
100
AcDb2dVertex
  10
-13.33417
  20
31.85154
  30
0.0
   0
SEQEND
   5
2C6
100
AcDbEntity
   8
TITLEBLOCK
   6
CONTINUOUS
   0
POLYLINE
   5
2C7
100
AcDbEntity
   8
TITLEBLOCK
   6
CONTINUOUS
  62
      9
100
AcDb2dPolyline
  66
      1
  10
0.0
  20
0.0
  30
0.0
  70
      1
  75
      5
   0
VERTEX
   5
2C8
100
AcDbEntity
   8
TITLEBLOCK
   6
CONTINUOUS
  62
      9
100
AcDbVertex
100
AcDb2dVertex
  10
-13.39667
  20
31.74329
  30
0.0
   0
VERTEX
   5
2C9
100
AcDbEntity
   8
TITLEBLOCK
   6
CONTINUOUS
  62
      9
100
AcDbVertex
100
AcDb2dVertex
  10
-13.45917
  20
31.85154
  30
0.0
   0
VERTEX
   5
2CA
100
AcDbEntity
   8
TITLEBLOCK
   6
CONTINUOUS
  62
      9
100
AcDbVertex
100
AcDb2dVertex
  10
-13.39667
  20
30.85154
  30
0.0
   0
VERTEX
   5
2CB
100
AcDbEntity
   8
TITLEBLOCK
   6
CONTINUOUS
  62
      9
100
AcDbVertex
100
AcDb2dVertex
  10
-13.33417
  20
30.95979
  30
0.0
   0
SEQEND
   5
2CC
100
AcDbEntity
   8
TITLEBLOCK
   6
CONTINUOUS
   0
POLYLINE
   5
2CD
100
AcDbEntity
   8
TITLEBLOCK
   6
CONTINUOUS
  62
      9
100
AcDb2dPolyline
  66
      1
  10
0.0
  20
0.0
  30
0.0
  70
      1
  75
      5
   0
VERTEX
   5
2CE
100
AcDbEntity
   8
TITLEBLOCK
   6
CONTINUOUS
  62
      9
100
AcDbVertex
100
AcDb2dVertex
  10
-13.39667
  20
30.85154
  30
0.0
   0
VERTEX
   5
2CF
100
AcDbEntity
   8
TITLEBLOCK
   6
CONTINUOUS
  62
      9
100
AcDbVertex
100
AcDb2dVertex
  10
-13.45917
  20
30.95979
  30
0.0
   0
VERTEX
   5
2D0
100
AcDbEntity
   8
TITLEBLOCK
   6
CONTINUOUS
  62
      9
100
AcDbVertex
100
AcDb2dVertex
  10
-13.52167
  20
31.74328
  30
0.0
   0
VERTEX
   5
2D1
100
AcDbEntity
   8
TITLEBLOCK
   6
CONTINUOUS
  62
      9
100
AcDbVertex
100
AcDb2dVertex
  10
-13.45917
  20
31.85153
  30
0.0
   0
SEQEND
   5
2D2
100
AcDbEntity
   8
TITLEBLOCK
   6
CONTINUOUS
   0
POLYLINE
   5
2D3
100
AcDbEntity
   8
TITLEBLOCK
   6
CONTINUOUS
  62
      9
100
AcDb2dPolyline
  66
      1
  10
0.0
  20
0.0
  30
0.0
  70
      1
  75
      5
   0
VERTEX
   5
2D4
100
AcDbEntity
   8
TITLEBLOCK
   6
CONTINUOUS
  62
      9
100
AcDbVertex
100
AcDb2dVertex
  10
-13.52167
  20
31.74328
  30
0.0
   0
VERTEX
   5
2D5
100
AcDbEntity
   8
TITLEBLOCK
   6
CONTINUOUS
  62
      9
100
AcDbVertex
100
AcDb2dVertex
  10
-13.58417
  20
31.85153
  30
0.0
   0
VERTEX
   5
2D6
100
AcDbEntity
   8
TITLEBLOCK
   6
CONTINUOUS
  62
      9
100
AcDbVertex
100
AcDb2dVertex
  10
-13.52167
  20
30.85153
  30
0.0
   0
VERTEX
   5
2D7
100
AcDbEntity
   8
TITLEBLOCK
   6
CONTINUOUS
  62
      9
100
AcDbVertex
100
AcDb2dVertex
  10
-13.45917
  20
30.95978
  30
0.0
   0
SEQEND
   5
2D8
100
AcDbEntity
   8
TITLEBLOCK
   6
CONTINUOUS
   0
POLYLINE
   5
2D9
100
AcDbEntity
   8
TITLEBLOCK
   6
CONTINUOUS
  62
      9
100
AcDb2dPolyline
  66
      1
  10
0.0
  20
0.0
  30
0.0
  70
      1
  75
      5
   0
VERTEX
   5
2DA
100
AcDbEntity
   8
TITLEBLOCK
   6
CONTINUOUS
  62
      9
100
AcDbVertex
100
AcDb2dVertex
  10
-13.52167
  20
30.85153
  30
0.0
   0
VERTEX
   5
2DB
100
AcDbEntity
   8
TITLEBLOCK
   6
CONTINUOUS
  62
      9
100
AcDbVertex
100
AcDb2dVertex
  10
-13.58417
  20
30.95978
  30
0.0
   0
VERTEX
   5
2DC
100
AcDbEntity
   8
TITLEBLOCK
   6
CONTINUOUS
  62
      9
100
AcDbVertex
100
AcDb2dVertex
  10
-13.64667
  20
31.74327
  30
0.0
   0
VERTEX
   5
2DD
100
AcDbEntity
   8
TITLEBLOCK
   6
CONTINUOUS
  62
      9
100
AcDbVertex
100
AcDb2dVertex
  10
-13.58417
  20
31.85152
  30
0.0
   0
SEQEND
   5
2DE
100
AcDbEntity
   8
TITLEBLOCK
   6
CONTINUOUS
   0
POLYLINE
   5
2DF
100
AcDbEntity
   8
TITLEBLOCK
   6
CONTINUOUS
  62
      9
100
AcDb2dPolyline
  66
      1
  10
0.0
  20
0.0
  30
0.0
  70
      1
  75
      5
   0
VERTEX
   5
2E0
100
AcDbEntity
   8
TITLEBLOCK
   6
CONTINUOUS
  62
      9
100
AcDbVertex
100
AcDb2dVertex
  10
-13.64667
  20
31.74327
  30
0.0
   0
VERTEX
   5
2E1
100
AcDbEntity
   8
TITLEBLOCK
   6
CONTINUOUS
  62
      9
100
AcDbVertex
100
AcDb2dVertex
  10
-13.70917
  20
31.85152
  30
0.0
   0
VERTEX
   5
2E2
100
AcDbEntity
   8
TITLEBLOCK
   6
CONTINUOUS
  62
      9
100
AcDbVertex
100
AcDb2dVertex
  10
-13.64667
  20
30.85152
  30
0.0
   0
VERTEX
   5
2E3
100
AcDbEntity
   8
TITLEBLOCK
   6
CONTINUOUS
  62
      9
100
AcDbVertex
100
AcDb2dVertex
  10
-13.58417
  20
30.95977
  30
0.0
   0
SEQEND
   5
2E4
100
AcDbEntity
   8
TITLEBLOCK
   6
CONTINUOUS
   0
POLYLINE
   5
2E5
100
AcDbEntity
   8
TITLEBLOCK
   6
CONTINUOUS
  62
      9
100
AcDb2dPolyline
  66
      1
  10
0.0
  20
0.0
  30
0.0
  70
      1
  75
      5
   0
VERTEX
   5
2E6
100
AcDbEntity
   8
TITLEBLOCK
   6
CONTINUOUS
  62
      9
100
AcDbVertex
100
AcDb2dVertex
  10
-13.64667
  20
30.85152
  30
0.0
   0
VERTEX
   5
2E7
100
AcDbEntity
   8
TITLEBLOCK
   6
CONTINUOUS
  62
      9
100
AcDbVertex
100
AcDb2dVertex
  10
-13.70917
  20
30.95977
  30
0.0
   0
VERTEX
   5
2E8
100
AcDbEntity
   8
TITLEBLOCK
   6
CONTINUOUS
  62
      9
100
AcDbVertex
100
AcDb2dVertex
  10
-13.77167
  20
31.74326
  30
0.0
   0
VERTEX
   5
2E9
100
AcDbEntity
   8
TITLEBLOCK
   6
CONTINUOUS
  62
      9
100
AcDbVertex
100
AcDb2dVertex
  10
-13.70917
  20
31.85151
  30
0.0
   0
SEQEND
   5
2EA
100
AcDbEntity
   8
TITLEBLOCK
   6
CONTINUOUS
   0
POLYLINE
   5
2EB
100
AcDbEntity
   8
TITLEBLOCK
   6
CONTINUOUS
  62
      9
100
AcDb2dPolyline
  66
      1
  10
0.0
  20
0.0
  30
0.0
  70
      1
  75
      5
   0
VERTEX
   5
2EC
100
AcDbEntity
   8
TITLEBLOCK
   6
CONTINUOUS
  62
      9
100
AcDbVertex
100
AcDb2dVertex
  10
-13.77167
  20
31.74326
  30
0.0
   0
VERTEX
   5
2ED
100
AcDbEntity
   8
TITLEBLOCK
   6
CONTINUOUS
  62
      9
100
AcDbVertex
100
AcDb2dVertex
  10
-13.83417
  20
31.85151
  30
0.0
   0
VERTEX
   5
2EE
100
AcDbEntity
   8
TITLEBLOCK
   6
CONTINUOUS
  62
      9
100
AcDbVertex
100
AcDb2dVertex
  10
-13.77167
  20
30.85151
  30
0.0
   0
VERTEX
   5
2EF
100
AcDbEntity
   8
TITLEBLOCK
   6
CONTINUOUS
  62
      9
100
AcDbVertex
100
AcDb2dVertex
  10
-13.70917
  20
30.95976
  30
0.0
   0
SEQEND
   5
2F0
100
AcDbEntity
   8
TITLEBLOCK
   6
CONTINUOUS
   0
POLYLINE
   5
2F1
100
AcDbEntity
   8
TITLEBLOCK
   6
CONTINUOUS
  62
      9
100
AcDb2dPolyline
  66
      1
  10
0.0
  20
0.0
  30
0.0
  70
      1
  75
      5
   0
VERTEX
   5
2F2
100
AcDbEntity
   8
TITLEBLOCK
   6
CONTINUOUS
  62
      9
100
AcDbVertex
100
AcDb2dVertex
  10
-13.77167
  20
30.85151
  30
0.0
   0
VERTEX
   5
2F3
100
AcDbEntity
   8
TITLEBLOCK
   6
CONTINUOUS
  62
      9
100
AcDbVertex
100
AcDb2dVertex
  10
-13.83417
  20
30.95976
  30
0.0
   0
VERTEX
   5
2F4
100
AcDbEntity
   8
TITLEBLOCK
   6
CONTINUOUS
  62
      9
100
AcDbVertex
100
AcDb2dVertex
  10
-13.89667
  20
31.74325
  30
0.0
   0
VERTEX
   5
2F5
100
AcDbEntity
   8
TITLEBLOCK
   6
CONTINUOUS
  62
      9
100
AcDbVertex
100
AcDb2dVertex
  10
-13.83417
  20
31.8515
  30
0.0
   0
SEQEND
   5
2F6
100
AcDbEntity
   8
TITLEBLOCK
   6
CONTINUOUS
   0
POLYLINE
   5
2F7
100
AcDbEntity
   8
TITLEBLOCK
   6
CONTINUOUS
  62
      9
100
AcDb2dPolyline
  66
      1
  10
0.0
  20
0.0
  30
0.0
  70
      1
  75
      5
   0
VERTEX
   5
2F8
100
AcDbEntity
   8
TITLEBLOCK
   6
CONTINUOUS
  62
      9
100
AcDbVertex
100
AcDb2dVertex
  10
-13.89667
  20
31.74325
  30
0.0
   0
VERTEX
   5
2F9
100
AcDbEntity
   8
TITLEBLOCK
   6
CONTINUOUS
  62
      9
100
AcDbVertex
100
AcDb2dVertex
  10
-13.95917
  20
31.8515
  30
0.0
   0
VERTEX
   5
2FA
100
AcDbEntity
   8
TITLEBLOCK
   6
CONTINUOUS
  62
      9
100
AcDbVertex
100
AcDb2dVertex
  10
-13.89667
  20
30.8515
  30
0.0
   0
VERTEX
   5
2FB
100
AcDbEntity
   8
TITLEBLOCK
   6
CONTINUOUS
  62
      9
100
AcDbVertex
100
AcDb2dVertex
  10
-13.83417
  20
30.95975
  30
0.0
   0
SEQEND
   5
2FC
100
AcDbEntity
   8
TITLEBLOCK
   6
CONTINUOUS
   0
POLYLINE
   5
2FD
100
AcDbEntity
   8
TITLEBLOCK
   6
CONTINUOUS
  62
      9
100
AcDb2dPolyline
  66
      1
  10
0.0
  20
0.0
  30
0.0
  70
      1
  75
      5
   0
VERTEX
   5
2FE
100
AcDbEntity
   8
TITLEBLOCK
   6
CONTINUOUS
  62
      9
100
AcDbVertex
100
AcDb2dVertex
  10
-13.89667
  20
30.8515
  30
0.0
   0
VERTEX
   5
2FF
100
AcDbEntity
   8
TITLEBLOCK
   6
CONTINUOUS
  62
      9
100
AcDbVertex
100
AcDb2dVertex
  10
-13.95917
  20
30.95975
  30
0.0
   0
VERTEX
   5
300
100
AcDbEntity
   8
TITLEBLOCK
   6
CONTINUOUS
  62
      9
100
AcDbVertex
100
AcDb2dVertex
  10
-14.02167
  20
31.74324
  30
0.0
   0
VERTEX
   5
301
100
AcDbEntity
   8
TITLEBLOCK
   6
CONTINUOUS
  62
      9
100
AcDbVertex
100
AcDb2dVertex
  10
-13.95917
  20
31.85149
  30
0.0
   0
SEQEND
   5
302
100
AcDbEntity
   8
TITLEBLOCK
   6
CONTINUOUS
   0
POLYLINE
   5
303
100
AcDbEntity
   8
TITLEBLOCK
   6
CONTINUOUS
  62
      9
100
AcDb2dPolyline
  66
      1
  10
0.0
  20
0.0
  30
0.0
  70
      1
  75
      5
   0
VERTEX
   5
304
100
AcDbEntity
   8
TITLEBLOCK
   6
CONTINUOUS
  62
      9
100
AcDbVertex
100
AcDb2dVertex
  10
-14.02167
  20
31.74324
  30
0.0
   0
VERTEX
   5
305
100
AcDbEntity
   8
TITLEBLOCK
   6
CONTINUOUS
  62
      9
100
AcDbVertex
100
AcDb2dVertex
  10
-14.08417
  20
31.85149
  30
0.0
   0
VERTEX
   5
306
100
AcDbEntity
   8
TITLEBLOCK
   6
CONTINUOUS
  62
      9
100
AcDbVertex
100
AcDb2dVertex
  10
-14.02167
  20
30.85149
  30
0.0
   0
VERTEX
   5
307
100
AcDbEntity
   8
TITLEBLOCK
   6
CONTINUOUS
  62
      9
100
AcDbVertex
100
AcDb2dVertex
  10
-13.95917
  20
30.95974
  30
0.0
   0
SEQEND
   5
308
100
AcDbEntity
   8
TITLEBLOCK
   6
CONTINUOUS
   0
POLYLINE
   5
309
100
AcDbEntity
   8
TITLEBLOCK
   6
CONTINUOUS
  62
      9
100
AcDb2dPolyline
  66
      1
  10
0.0
  20
0.0
  30
0.0
  70
      1
  75
      5
   0
VERTEX
   5
30A
100
AcDbEntity
   8
TITLEBLOCK
   6
CONTINUOUS
  62
      9
100
AcDbVertex
100
AcDb2dVertex
  10
-14.02167
  20
30.85149
  30
0.0
   0
VERTEX
   5
30B
100
AcDbEntity
   8
TITLEBLOCK
   6
CONTINUOUS
  62
      9
100
AcDbVertex
100
AcDb2dVertex
  10
-14.08417
  20
30.95974
  30
0.0
   0
VERTEX
   5
30C
100
AcDbEntity
   8
TITLEBLOCK
   6
CONTINUOUS
  62
      9
100
AcDbVertex
100
AcDb2dVertex
  10
-14.14667
  20
31.74323
  30
0.0
   0
VERTEX
   5
30D
100
AcDbEntity
   8
TITLEBLOCK
   6
CONTINUOUS
  62
      9
100
AcDbVertex
100
AcDb2dVertex
  10
-14.08417
  20
31.85148
  30
0.0
   0
SEQEND
   5
30E
100
AcDbEntity
   8
TITLEBLOCK
   6
CONTINUOUS
   0
POLYLINE
   5
30F
100
AcDbEntity
   8
TITLEBLOCK
   6
CONTINUOUS
  62
      9
100
AcDb2dPolyline
  66
      1
  10
0.0
  20
0.0
  30
0.0
  70
      1
  75
      5
   0
VERTEX
   5
310
100
AcDbEntity
   8
TITLEBLOCK
   6
CONTINUOUS
  62
      9
100
AcDbVertex
100
AcDb2dVertex
  10
-14.14667
  20
31.74323
  30
0.0
   0
VERTEX
   5
311
100
AcDbEntity
   8
TITLEBLOCK
   6
CONTINUOUS
  62
      9
100
AcDbVertex
100
AcDb2dVertex
  10
-14.20917
  20
31.85148
  30
0.0
   0
VERTEX
   5
312
100
AcDbEntity
   8
TITLEBLOCK
   6
CONTINUOUS
  62
      9
100
AcDbVertex
100
AcDb2dVertex
  10
-14.14667
  20
30.85148
  30
0.0
   0
VERTEX
   5
313
100
AcDbEntity
   8
TITLEBLOCK
   6
CONTINUOUS
  62
      9
100
AcDbVertex
100
AcDb2dVertex
  10
-14.08417
  20
30.95973
  30
0.0
   0
SEQEND
   5
314
100
AcDbEntity
   8
TITLEBLOCK
   6
CONTINUOUS
   0
POLYLINE
   5
315
100
AcDbEntity
   8
TITLEBLOCK
   6
CONTINUOUS
  62
      9
100
AcDb2dPolyline
  66
      1
  10
0.0
  20
0.0
  30
0.0
  70
      1
  75
      5
   0
VERTEX
   5
316
100
AcDbEntity
   8
TITLEBLOCK
   6
CONTINUOUS
  62
      9
100
AcDbVertex
100
AcDb2dVertex
  10
-14.14667
  20
30.85148
  30
0.0
   0
VERTEX
   5
317
100
AcDbEntity
   8
TITLEBLOCK
   6
CONTINUOUS
  62
      9
100
AcDbVertex
100
AcDb2dVertex
  10
-14.20917
  20
30.95973
  30
0.0
   0
VERTEX
   5
318
100
AcDbEntity
   8
TITLEBLOCK
   6
CONTINUOUS
  62
      9
100
AcDbVertex
100
AcDb2dVertex
  10
-14.27167
  20
31.74322
  30
0.0
   0
VERTEX
   5
319
100
AcDbEntity
   8
TITLEBLOCK
   6
CONTINUOUS
  62
      9
100
AcDbVertex
100
AcDb2dVertex
  10
-14.20917
  20
31.85147
  30
0.0
   0
SEQEND
   5
31A
100
AcDbEntity
   8
TITLEBLOCK
   6
CONTINUOUS
   0
POLYLINE
   5
31B
100
AcDbEntity
   8
TITLEBLOCK
   6
CONTINUOUS
  62
      9
100
AcDb2dPolyline
  66
      1
  10
0.0
  20
0.0
  30
0.0
  70
      1
  75
      5
   0
VERTEX
   5
31C
100
AcDbEntity
   8
TITLEBLOCK
   6
CONTINUOUS
  62
      9
100
AcDbVertex
100
AcDb2dVertex
  10
-14.27167
  20
31.74322
  30
0.0
   0
VERTEX
   5
31D
100
AcDbEntity
   8
TITLEBLOCK
   6
CONTINUOUS
  62
      9
100
AcDbVertex
100
AcDb2dVertex
  10
-14.33417
  20
31.85147
  30
0.0
   0
VERTEX
   5
31E
100
AcDbEntity
   8
TITLEBLOCK
   6
CONTINUOUS
  62
      9
100
AcDbVertex
100
AcDb2dVertex
  10
-14.27167
  20
30.85147
  30
0.0
   0
VERTEX
   5
31F
100
AcDbEntity
   8
TITLEBLOCK
   6
CONTINUOUS
  62
      9
100
AcDbVertex
100
AcDb2dVertex
  10
-14.20917
  20
30.95972
  30
0.0
   0
SEQEND
   5
320
100
AcDbEntity
   8
TITLEBLOCK
   6
CONTINUOUS
   0
POLYLINE
   5
321
100
AcDbEntity
   8
TITLEBLOCK
   6
CONTINUOUS
  62
      9
100
AcDb2dPolyline
  66
      1
  10
0.0
  20
0.0
  30
0.0
  70
      1
  75
      5
   0
VERTEX
   5
322
100
AcDbEntity
   8
TITLEBLOCK
   6
CONTINUOUS
  62
      9
100
AcDbVertex
100
AcDb2dVertex
  10
-14.27167
  20
30.85147
  30
0.0
   0
VERTEX
   5
323
100
AcDbEntity
   8
TITLEBLOCK
   6
CONTINUOUS
  62
      9
100
AcDbVertex
100
AcDb2dVertex
  10
-14.33417
  20
30.95972
  30
0.0
   0
VERTEX
   5
324
100
AcDbEntity
   8
TITLEBLOCK
   6
CONTINUOUS
  62
      9
100
AcDbVertex
100
AcDb2dVertex
  10
-14.39667
  20
31.74321
  30
0.0
   0
VERTEX
   5
325
100
AcDbEntity
   8
TITLEBLOCK
   6
CONTINUOUS
  62
      9
100
AcDbVertex
100
AcDb2dVertex
  10
-14.33417
  20
31.85146
  30
0.0
   0
SEQEND
   5
326
100
AcDbEntity
   8
TITLEBLOCK
   6
CONTINUOUS
   0
POLYLINE
   5
327
100
AcDbEntity
   8
TITLEBLOCK
   6
CONTINUOUS
  62
      9
100
AcDb2dPolyline
  66
      1
  10
0.0
  20
0.0
  30
0.0
  70
      1
  75
      5
   0
VERTEX
   5
328
100
AcDbEntity
   8
TITLEBLOCK
   6
CONTINUOUS
  62
      9
100
AcDbVertex
100
AcDb2dVertex
  10
-14.39667
  20
31.74321
  30
0.0
   0
VERTEX
   5
329
100
AcDbEntity
   8
TITLEBLOCK
   6
CONTINUOUS
  62
      9
100
AcDbVertex
100
AcDb2dVertex
  10
-14.45917
  20
31.85146
  30
0.0
   0
VERTEX
   5
32A
100
AcDbEntity
   8
TITLEBLOCK
   6
CONTINUOUS
  62
      9
100
AcDbVertex
100
AcDb2dVertex
  10
-14.39667
  20
30.85146
  30
0.0
   0
VERTEX
   5
32B
100
AcDbEntity
   8
TITLEBLOCK
   6
CONTINUOUS
  62
      9
100
AcDbVertex
100
AcDb2dVertex
  10
-14.33417
  20
30.95971
  30
0.0
   0
SEQEND
   5
32C
100
AcDbEntity
   8
TITLEBLOCK
   6
CONTINUOUS
   0
POLYLINE
   5
32D
100
AcDbEntity
   8
TITLEBLOCK
   6
CONTINUOUS
  62
      9
100
AcDb2dPolyline
  66
      1
  10
0.0
  20
0.0
  30
0.0
  70
      1
  75
      5
   0
VERTEX
   5
32E
100
AcDbEntity
   8
TITLEBLOCK
   6
CONTINUOUS
  62
      9
100
AcDbVertex
100
AcDb2dVertex
  10
-14.39667
  20
30.85146
  30
0.0
   0
VERTEX
   5
32F
100
AcDbEntity
   8
TITLEBLOCK
   6
CONTINUOUS
  62
      9
100
AcDbVertex
100
AcDb2dVertex
  10
-14.45917
  20
30.95971
  30
0.0
   0
VERTEX
   5
330
100
AcDbEntity
   8
TITLEBLOCK
   6
CONTINUOUS
  62
      9
100
AcDbVertex
100
AcDb2dVertex
  10
-14.52167
  20
31.7432
  30
0.0
   0
VERTEX
   5
331
100
AcDbEntity
   8
TITLEBLOCK
   6
CONTINUOUS
  62
      9
100
AcDbVertex
100
AcDb2dVertex
  10
-14.45917
  20
31.85145
  30
0.0
   0
SEQEND
   5
332
100
AcDbEntity
   8
TITLEBLOCK
   6
CONTINUOUS
   0
POLYLINE
   5
333
100
AcDbEntity
   8
TITLEBLOCK
   6
CONTINUOUS
  62
      9
100
AcDb2dPolyline
  66
      1
  10
0.0
  20
0.0
  30
0.0
  70
      1
  75
      5
   0
VERTEX
   5
334
100
AcDbEntity
   8
TITLEBLOCK
   6
CONTINUOUS
  62
      9
100
AcDbVertex
100
AcDb2dVertex
  10
-14.52167
  20
31.7432
  30
0.0
   0
VERTEX
   5
335
100
AcDbEntity
   8
TITLEBLOCK
   6
CONTINUOUS
  62
      9
100
AcDbVertex
100
AcDb2dVertex
  10
-14.58417
  20
31.85145
  30
0.0
   0
VERTEX
   5
336
100
AcDbEntity
   8
TITLEBLOCK
   6
CONTINUOUS
  62
      9
100
AcDbVertex
100
AcDb2dVertex
  10
-14.52167
  20
30.85145
  30
0.0
   0
VERTEX
   5
337
100
AcDbEntity
   8
TITLEBLOCK
   6
CONTINUOUS
  62
      9
100
AcDbVertex
100
AcDb2dVertex
  10
-14.45917
  20
30.9597
  30
0.0
   0
SEQEND
   5
338
100
AcDbEntity
   8
TITLEBLOCK
   6
CONTINUOUS
   0
POLYLINE
   5
339
100
AcDbEntity
   8
TITLEBLOCK
   6
CONTINUOUS
  62
      9
100
AcDb2dPolyline
  66
      1
  10
0.0
  20
0.0
  30
0.0
  70
      1
  75
      5
   0
VERTEX
   5
33A
100
AcDbEntity
   8
TITLEBLOCK
   6
CONTINUOUS
  62
      9
100
AcDbVertex
100
AcDb2dVertex
  10
-14.52167
  20
30.85145
  30
0.0
   0
VERTEX
   5
33B
100
AcDbEntity
   8
TITLEBLOCK
   6
CONTINUOUS
  62
      9
100
AcDbVertex
100
AcDb2dVertex
  10
-14.58417
  20
30.9597
  30
0.0
   0
VERTEX
   5
33C
100
AcDbEntity
   8
TITLEBLOCK
   6
CONTINUOUS
  62
      9
100
AcDbVertex
100
AcDb2dVertex
  10
-14.64667
  20
31.74319
  30
0.0
   0
VERTEX
   5
33D
100
AcDbEntity
   8
TITLEBLOCK
   6
CONTINUOUS
  62
      9
100
AcDbVertex
100
AcDb2dVertex
  10
-14.58417
  20
31.85144
  30
0.0
   0
SEQEND
   5
33E
100
AcDbEntity
   8
TITLEBLOCK
   6
CONTINUOUS
   0
POLYLINE
   5
33F
100
AcDbEntity
   8
TITLEBLOCK
   6
CONTINUOUS
  62
      9
100
AcDb2dPolyline
  66
      1
  10
0.0
  20
0.0
  30
0.0
  70
      1
  75
      5
   0
VERTEX
   5
340
100
AcDbEntity
   8
TITLEBLOCK
   6
CONTINUOUS
  62
      9
100
AcDbVertex
100
AcDb2dVertex
  10
-14.64667
  20
31.74319
  30
0.0
   0
VERTEX
   5
341
100
AcDbEntity
   8
TITLEBLOCK
   6
CONTINUOUS
  62
      9
100
AcDbVertex
100
AcDb2dVertex
  10
-14.70917
  20
31.85144
  30
0.0
   0
VERTEX
   5
342
100
AcDbEntity
   8
TITLEBLOCK
   6
CONTINUOUS
  62
      9
100
AcDbVertex
100
AcDb2dVertex
  10
-14.64667
  20
30.85144
  30
0.0
   0
VERTEX
   5
343
100
AcDbEntity
   8
TITLEBLOCK
   6
CONTINUOUS
  62
      9
100
AcDbVertex
100
AcDb2dVertex
  10
-14.58417
  20
30.95969
  30
0.0
   0
SEQEND
   5
344
100
AcDbEntity
   8
TITLEBLOCK
   6
CONTINUOUS
   0
POLYLINE
   5
345
100
AcDbEntity
   8
TITLEBLOCK
   6
CONTINUOUS
  62
      9
100
AcDb2dPolyline
  66
      1
  10
0.0
  20
0.0
  30
0.0
  70
      1
  75
      5
   0
VERTEX
   5
346
100
AcDbEntity
   8
TITLEBLOCK
   6
CONTINUOUS
  62
      9
100
AcDbVertex
100
AcDb2dVertex
  10
-14.64667
  20
30.85144
  30
0.0
   0
VERTEX
   5
347
100
AcDbEntity
   8
TITLEBLOCK
   6
CONTINUOUS
  62
      9
100
AcDbVertex
100
AcDb2dVertex
  10
-14.70917
  20
30.95969
  30
0.0
   0
VERTEX
   5
348
100
AcDbEntity
   8
TITLEBLOCK
   6
CONTINUOUS
  62
      9
100
AcDbVertex
100
AcDb2dVertex
  10
-14.77167
  20
31.74318
  30
0.0
   0
VERTEX
   5
349
100
AcDbEntity
   8
TITLEBLOCK
   6
CONTINUOUS
  62
      9
100
AcDbVertex
100
AcDb2dVertex
  10
-14.70917
  20
31.85143
  30
0.0
   0
SEQEND
   5
34A
100
AcDbEntity
   8
TITLEBLOCK
   6
CONTINUOUS
   0
POLYLINE
   5
34B
100
AcDbEntity
   8
TITLEBLOCK
   6
CONTINUOUS
  62
      9
100
AcDb2dPolyline
  66
      1
  10
0.0
  20
0.0
  30
0.0
  70
      1
  75
      5
   0
VERTEX
   5
34C
100
AcDbEntity
   8
TITLEBLOCK
   6
CONTINUOUS
  62
      9
100
AcDbVertex
100
AcDb2dVertex
  10
-14.77167
  20
31.74318
  30
0.0
   0
VERTEX
   5
34D
100
AcDbEntity
   8
TITLEBLOCK
   6
CONTINUOUS
  62
      9
100
AcDbVertex
100
AcDb2dVertex
  10
-14.83417
  20
31.85143
  30
0.0
   0
VERTEX
   5
34E
100
AcDbEntity
   8
TITLEBLOCK
   6
CONTINUOUS
  62
      9
100
AcDbVertex
100
AcDb2dVertex
  10
-14.77167
  20
30.85143
  30
0.0
   0
VERTEX
   5
34F
100
AcDbEntity
   8
TITLEBLOCK
   6
CONTINUOUS
  62
      9
100
AcDbVertex
100
AcDb2dVertex
  10
-14.70917
  20
30.95968
  30
0.0
   0
SEQEND
   5
350
100
AcDbEntity
   8
TITLEBLOCK
   6
CONTINUOUS
   0
POLYLINE
   5
351
100
AcDbEntity
   8
TITLEBLOCK
   6
CONTINUOUS
  62
      9
100
AcDb2dPolyline
  66
      1
  10
0.0
  20
0.0
  30
0.0
  70
      1
  75
      5
   0
VERTEX
   5
352
100
AcDbEntity
   8
TITLEBLOCK
   6
CONTINUOUS
  62
      9
100
AcDbVertex
100
AcDb2dVertex
  10
-14.77167
  20
30.85143
  30
0.0
   0
VERTEX
   5
353
100
AcDbEntity
   8
TITLEBLOCK
   6
CONTINUOUS
  62
      9
100
AcDbVertex
100
AcDb2dVertex
  10
-14.83417
  20
30.95968
  30
0.0
   0
VERTEX
   5
354
100
AcDbEntity
   8
TITLEBLOCK
   6
CONTINUOUS
  62
      9
100
AcDbVertex
100
AcDb2dVertex
  10
-14.89667
  20
31.74317
  30
0.0
   0
VERTEX
   5
355
100
AcDbEntity
   8
TITLEBLOCK
   6
CONTINUOUS
  62
      9
100
AcDbVertex
100
AcDb2dVertex
  10
-14.83417
  20
31.85142
  30
0.0
   0
SEQEND
   5
356
100
AcDbEntity
   8
TITLEBLOCK
   6
CONTINUOUS
   0
POLYLINE
   5
357
100
AcDbEntity
   8
TITLEBLOCK
   6
CONTINUOUS
  62
      9
100
AcDb2dPolyline
  66
      1
  10
0.0
  20
0.0
  30
0.0
  70
      1
  75
      5
   0
VERTEX
   5
358
100
AcDbEntity
   8
TITLEBLOCK
   6
CONTINUOUS
  62
      9
100
AcDbVertex
100
AcDb2dVertex
  10
-14.89667
  20
31.74317
  30
0.0
   0
VERTEX
   5
359
100
AcDbEntity
   8
TITLEBLOCK
   6
CONTINUOUS
  62
      9
100
AcDbVertex
100
AcDb2dVertex
  10
-14.95917
  20
31.85142
  30
0.0
   0
VERTEX
   5
35A
100
AcDbEntity
   8
TITLEBLOCK
   6
CONTINUOUS
  62
      9
100
AcDbVertex
100
AcDb2dVertex
  10
-14.89667
  20
30.85142
  30
0.0
   0
VERTEX
   5
35B
100
AcDbEntity
   8
TITLEBLOCK
   6
CONTINUOUS
  62
      9
100
AcDbVertex
100
AcDb2dVertex
  10
-14.83417
  20
30.95967
  30
0.0
   0
SEQEND
   5
35C
100
AcDbEntity
   8
TITLEBLOCK
   6
CONTINUOUS
   0
POLYLINE
   5
35D
100
AcDbEntity
   8
TITLEBLOCK
   6
CONTINUOUS
  62
      9
100
AcDb2dPolyline
  66
      1
  10
0.0
  20
0.0
  30
0.0
  70
      1
  75
      5
   0
VERTEX
   5
35E
100
AcDbEntity
   8
TITLEBLOCK
   6
CONTINUOUS
  62
      9
100
AcDbVertex
100
AcDb2dVertex
  10
-14.89667
  20
30.85142
  30
0.0
   0
VERTEX
   5
35F
100
AcDbEntity
   8
TITLEBLOCK
   6
CONTINUOUS
  62
      9
100
AcDbVertex
100
AcDb2dVertex
  10
-14.95917
  20
30.95967
  30
0.0
   0
VERTEX
   5
360
100
AcDbEntity
   8
TITLEBLOCK
   6
CONTINUOUS
  62
      9
100
AcDbVertex
100
AcDb2dVertex
  10
-15.02167
  20
31.74316
  30
0.0
   0
VERTEX
   5
361
100
AcDbEntity
   8
TITLEBLOCK
   6
CONTINUOUS
  62
      9
100
AcDbVertex
100
AcDb2dVertex
  10
-14.95917
  20
31.85141
  30
0.0
   0
SEQEND
   5
362
100
AcDbEntity
   8
TITLEBLOCK
   6
CONTINUOUS
   0
POLYLINE
   5
363
100
AcDbEntity
   8
TITLEBLOCK
   6
CONTINUOUS
  62
      9
100
AcDb2dPolyline
  66
      1
  10
0.0
  20
0.0
  30
0.0
  70
      1
  75
      5
   0
VERTEX
   5
364
100
AcDbEntity
   8
TITLEBLOCK
   6
CONTINUOUS
  62
      9
100
AcDbVertex
100
AcDb2dVertex
  10
-15.02167
  20
31.74316
  30
0.0
   0
VERTEX
   5
365
100
AcDbEntity
   8
TITLEBLOCK
   6
CONTINUOUS
  62
      9
100
AcDbVertex
100
AcDb2dVertex
  10
-15.08417
  20
31.85141
  30
0.0
   0
VERTEX
   5
366
100
AcDbEntity
   8
TITLEBLOCK
   6
CONTINUOUS
  62
      9
100
AcDbVertex
100
AcDb2dVertex
  10
-15.02167
  20
30.85141
  30
0.0
   0
VERTEX
   5
367
100
AcDbEntity
   8
TITLEBLOCK
   6
CONTINUOUS
  62
      9
100
AcDbVertex
100
AcDb2dVertex
  10
-14.95917
  20
30.95966
  30
0.0
   0
SEQEND
   5
368
100
AcDbEntity
   8
TITLEBLOCK
   6
CONTINUOUS
   0
POLYLINE
   5
369
100
AcDbEntity
   8
TITLEBLOCK
   6
CONTINUOUS
  62
      9
100
AcDb2dPolyline
  66
      1
  10
0.0
  20
0.0
  30
0.0
  70
      1
  75
      5
   0
VERTEX
   5
36A
100
AcDbEntity
   8
TITLEBLOCK
   6
CONTINUOUS
  62
      9
100
AcDbVertex
100
AcDb2dVertex
  10
-15.02167
  20
30.85141
  30
0.0
   0
VERTEX
   5
36B
100
AcDbEntity
   8
TITLEBLOCK
   6
CONTINUOUS
  62
      9
100
AcDbVertex
100
AcDb2dVertex
  10
-15.08417
  20
30.95966
  30
0.0
   0
VERTEX
   5
36C
100
AcDbEntity
   8
TITLEBLOCK
   6
CONTINUOUS
  62
      9
100
AcDbVertex
100
AcDb2dVertex
  10
-15.14667
  20
31.74315
  30
0.0
   0
VERTEX
   5
36D
100
AcDbEntity
   8
TITLEBLOCK
   6
CONTINUOUS
  62
      9
100
AcDbVertex
100
AcDb2dVertex
  10
-15.08417
  20
31.8514
  30
0.0
   0
SEQEND
   5
36E
100
AcDbEntity
   8
TITLEBLOCK
   6
CONTINUOUS
   0
POLYLINE
   5
36F
100
AcDbEntity
   8
TITLEBLOCK
   6
CONTINUOUS
  62
      9
100
AcDb2dPolyline
  66
      1
  10
0.0
  20
0.0
  30
0.0
  70
      1
  75
      5
   0
VERTEX
   5
370
100
AcDbEntity
   8
TITLEBLOCK
   6
CONTINUOUS
  62
      9
100
AcDbVertex
100
AcDb2dVertex
  10
-15.14667
  20
31.74315
  30
0.0
   0
VERTEX
   5
371
100
AcDbEntity
   8
TITLEBLOCK
   6
CONTINUOUS
  62
      9
100
AcDbVertex
100
AcDb2dVertex
  10
-15.20917
  20
31.8514
  30
0.0
   0
VERTEX
   5
372
100
AcDbEntity
   8
TITLEBLOCK
   6
CONTINUOUS
  62
      9
100
AcDbVertex
100
AcDb2dVertex
  10
-15.14667
  20
30.8514
  30
0.0
   0
VERTEX
   5
373
100
AcDbEntity
   8
TITLEBLOCK
   6
CONTINUOUS
  62
      9
100
AcDbVertex
100
AcDb2dVertex
  10
-15.08417
  20
30.95965
  30
0.0
   0
SEQEND
   5
374
100
AcDbEntity
   8
TITLEBLOCK
   6
CONTINUOUS
   0
POLYLINE
   5
375
100
AcDbEntity
   8
TITLEBLOCK
   6
CONTINUOUS
  62
      9
100
AcDb2dPolyline
  66
      1
  10
0.0
  20
0.0
  30
0.0
  70
      1
  75
      5
   0
VERTEX
   5
376
100
AcDbEntity
   8
TITLEBLOCK
   6
CONTINUOUS
  62
      9
100
AcDbVertex
100
AcDb2dVertex
  10
-15.14667
  20
30.8514
  30
0.0
   0
VERTEX
   5
377
100
AcDbEntity
   8
TITLEBLOCK
   6
CONTINUOUS
  62
      9
100
AcDbVertex
100
AcDb2dVertex
  10
-15.20917
  20
30.95965
  30
0.0
   0
VERTEX
   5
378
100
AcDbEntity
   8
TITLEBLOCK
   6
CONTINUOUS
  62
      9
100
AcDbVertex
100
AcDb2dVertex
  10
-15.27167
  20
31.74314
  30
0.0
   0
VERTEX
   5
379
100
AcDbEntity
   8
TITLEBLOCK
   6
CONTINUOUS
  62
      9
100
AcDbVertex
100
AcDb2dVertex
  10
-15.20917
  20
31.85139
  30
0.0
   0
SEQEND
   5
37A
100
AcDbEntity
   8
TITLEBLOCK
   6
CONTINUOUS
   0
POLYLINE
   5
37B
100
AcDbEntity
   8
TITLEBLOCK
   6
CONTINUOUS
  62
      9
100
AcDb2dPolyline
  66
      1
  10
0.0
  20
0.0
  30
0.0
  70
      1
  75
      5
   0
VERTEX
   5
37C
100
AcDbEntity
   8
TITLEBLOCK
   6
CONTINUOUS
  62
      9
100
AcDbVertex
100
AcDb2dVertex
  10
-15.27167
  20
31.74314
  30
0.0
   0
VERTEX
   5
37D
100
AcDbEntity
   8
TITLEBLOCK
   6
CONTINUOUS
  62
      9
100
AcDbVertex
100
AcDb2dVertex
  10
-15.33417
  20
31.85139
  30
0.0
   0
VERTEX
   5
37E
100
AcDbEntity
   8
TITLEBLOCK
   6
CONTINUOUS
  62
      9
100
AcDbVertex
100
AcDb2dVertex
  10
-15.27167
  20
30.85139
  30
0.0
   0
VERTEX
   5
37F
100
AcDbEntity
   8
TITLEBLOCK
   6
CONTINUOUS
  62
      9
100
AcDbVertex
100
AcDb2dVertex
  10
-15.20917
  20
30.95964
  30
0.0
   0
SEQEND
   5
380
100
AcDbEntity
   8
TITLEBLOCK
   6
CONTINUOUS
   0
POLYLINE
   5
381
100
AcDbEntity
   8
TITLEBLOCK
   6
CONTINUOUS
  62
      9
100
AcDb2dPolyline
  66
      1
  10
0.0
  20
0.0
  30
0.0
  70
      1
  75
      5
   0
VERTEX
   5
382
100
AcDbEntity
   8
TITLEBLOCK
   6
CONTINUOUS
  62
      9
100
AcDbVertex
100
AcDb2dVertex
  10
-15.27167
  20
30.85139
  30
0.0
   0
VERTEX
   5
383
100
AcDbEntity
   8
TITLEBLOCK
   6
CONTINUOUS
  62
      9
100
AcDbVertex
100
AcDb2dVertex
  10
-15.33417
  20
30.95964
  30
0.0
   0
VERTEX
   5
384
100
AcDbEntity
   8
TITLEBLOCK
   6
CONTINUOUS
  62
      9
100
AcDbVertex
100
AcDb2dVertex
  10
-15.39667
  20
31.74313
  30
0.0
   0
VERTEX
   5
385
100
AcDbEntity
   8
TITLEBLOCK
   6
CONTINUOUS
  62
      9
100
AcDbVertex
100
AcDb2dVertex
  10
-15.33417
  20
31.85138
  30
0.0
   0
SEQEND
   5
386
100
AcDbEntity
   8
TITLEBLOCK
   6
CONTINUOUS
   0
POLYLINE
   5
387
100
AcDbEntity
   8
TITLEBLOCK
   6
CONTINUOUS
  62
      9
100
AcDb2dPolyline
  66
      1
  10
0.0
  20
0.0
  30
0.0
  70
      1
  75
      5
   0
VERTEX
   5
388
100
AcDbEntity
   8
TITLEBLOCK
   6
CONTINUOUS
  62
      9
100
AcDbVertex
100
AcDb2dVertex
  10
-15.39667
  20
31.74313
  30
0.0
   0
VERTEX
   5
389
100
AcDbEntity
   8
TITLEBLOCK
   6
CONTINUOUS
  62
      9
100
AcDbVertex
100
AcDb2dVertex
  10
-15.45917
  20
31.85138
  30
0.0
   0
VERTEX
   5
38A
100
AcDbEntity
   8
TITLEBLOCK
   6
CONTINUOUS
  62
      9
100
AcDbVertex
100
AcDb2dVertex
  10
-15.39667
  20
30.85138
  30
0.0
   0
VERTEX
   5
38B
100
AcDbEntity
   8
TITLEBLOCK
   6
CONTINUOUS
  62
      9
100
AcDbVertex
100
AcDb2dVertex
  10
-15.33417
  20
30.95963
  30
0.0
   0
SEQEND
   5
38C
100
AcDbEntity
   8
TITLEBLOCK
   6
CONTINUOUS
   0
POLYLINE
   5
38D
100
AcDbEntity
   8
TITLEBLOCK
   6
CONTINUOUS
  62
      9
100
AcDb2dPolyline
  66
      1
  10
0.0
  20
0.0
  30
0.0
  70
      1
  75
      5
   0
VERTEX
   5
38E
100
AcDbEntity
   8
TITLEBLOCK
   6
CONTINUOUS
  62
      9
100
AcDbVertex
100
AcDb2dVertex
  10
-15.39667
  20
30.85138
  30
0.0
   0
VERTEX
   5
38F
100
AcDbEntity
   8
TITLEBLOCK
   6
CONTINUOUS
  62
      9
100
AcDbVertex
100
AcDb2dVertex
  10
-15.45917
  20
30.95963
  30
0.0
   0
VERTEX
   5
390
100
AcDbEntity
   8
TITLEBLOCK
   6
CONTINUOUS
  62
      9
100
AcDbVertex
100
AcDb2dVertex
  10
-15.52167
  20
31.74312
  30
0.0
   0
VERTEX
   5
391
100
AcDbEntity
   8
TITLEBLOCK
   6
CONTINUOUS
  62
      9
100
AcDbVertex
100
AcDb2dVertex
  10
-15.45917
  20
31.85137
  30
0.0
   0
SEQEND
   5
392
100
AcDbEntity
   8
TITLEBLOCK
   6
CONTINUOUS
   0
POLYLINE
   5
393
100
AcDbEntity
   8
TITLEBLOCK
   6
CONTINUOUS
  62
      9
100
AcDb2dPolyline
  66
      1
  10
0.0
  20
0.0
  30
0.0
  70
      1
  75
      5
   0
VERTEX
   5
394
100
AcDbEntity
   8
TITLEBLOCK
   6
CONTINUOUS
  62
      9
100
AcDbVertex
100
AcDb2dVertex
  10
-15.52167
  20
31.74312
  30
0.0
   0
VERTEX
   5
395
100
AcDbEntity
   8
TITLEBLOCK
   6
CONTINUOUS
  62
      9
100
AcDbVertex
100
AcDb2dVertex
  10
-15.58417
  20
31.85137
  30
0.0
   0
VERTEX
   5
396
100
AcDbEntity
   8
TITLEBLOCK
   6
CONTINUOUS
  62
      9
100
AcDbVertex
100
AcDb2dVertex
  10
-15.52167
  20
30.85137
  30
0.0
   0
VERTEX
   5
397
100
AcDbEntity
   8
TITLEBLOCK
   6
CONTINUOUS
  62
      9
100
AcDbVertex
100
AcDb2dVertex
  10
-15.45917
  20
30.95962
  30
0.0
   0
SEQEND
   5
398
100
AcDbEntity
   8
TITLEBLOCK
   6
CONTINUOUS
   0
POLYLINE
   5
399
100
AcDbEntity
   8
TITLEBLOCK
   6
CONTINUOUS
  62
      9
100
AcDb2dPolyline
  66
      1
  10
0.0
  20
0.0
  30
0.0
  70
      1
  75
      5
   0
VERTEX
   5
39A
100
AcDbEntity
   8
TITLEBLOCK
   6
CONTINUOUS
  62
      9
100
AcDbVertex
100
AcDb2dVertex
  10
-15.52167
  20
30.85137
  30
0.0
   0
VERTEX
   5
39B
100
AcDbEntity
   8
TITLEBLOCK
   6
CONTINUOUS
  62
      9
100
AcDbVertex
100
AcDb2dVertex
  10
-15.58417
  20
30.95962
  30
0.0
   0
VERTEX
   5
39C
100
AcDbEntity
   8
TITLEBLOCK
   6
CONTINUOUS
  62
      9
100
AcDbVertex
100
AcDb2dVertex
  10
-15.64667
  20
31.74311
  30
0.0
   0
VERTEX
   5
39D
100
AcDbEntity
   8
TITLEBLOCK
   6
CONTINUOUS
  62
      9
100
AcDbVertex
100
AcDb2dVertex
  10
-15.58417
  20
31.85136
  30
0.0
   0
SEQEND
   5
39E
100
AcDbEntity
   8
TITLEBLOCK
   6
CONTINUOUS
   0
POLYLINE
   5
39F
100
AcDbEntity
   8
TITLEBLOCK
   6
CONTINUOUS
  62
      9
100
AcDb2dPolyline
  66
      1
  10
0.0
  20
0.0
  30
0.0
  70
      1
  75
      5
   0
VERTEX
   5
3A0
100
AcDbEntity
   8
TITLEBLOCK
   6
CONTINUOUS
  62
      9
100
AcDbVertex
100
AcDb2dVertex
  10
-15.64667
  20
31.74311
  30
0.0
   0
VERTEX
   5
3A1
100
AcDbEntity
   8
TITLEBLOCK
   6
CONTINUOUS
  62
      9
100
AcDbVertex
100
AcDb2dVertex
  10
-15.70917
  20
31.85136
  30
0.0
   0
VERTEX
   5
3A2
100
AcDbEntity
   8
TITLEBLOCK
   6
CONTINUOUS
  62
      9
100
AcDbVertex
100
AcDb2dVertex
  10
-15.64667
  20
30.85136
  30
0.0
   0
VERTEX
   5
3A3
100
AcDbEntity
   8
TITLEBLOCK
   6
CONTINUOUS
  62
      9
100
AcDbVertex
100
AcDb2dVertex
  10
-15.58417
  20
30.95961
  30
0.0
   0
SEQEND
   5
3A4
100
AcDbEntity
   8
TITLEBLOCK
   6
CONTINUOUS
   0
POLYLINE
   5
3A5
100
AcDbEntity
   8
TITLEBLOCK
   6
CONTINUOUS
  62
      9
100
AcDb2dPolyline
  66
      1
  10
0.0
  20
0.0
  30
0.0
  70
      1
  75
      5
   0
VERTEX
   5
3A6
100
AcDbEntity
   8
TITLEBLOCK
   6
CONTINUOUS
  62
      9
100
AcDbVertex
100
AcDb2dVertex
  10
-15.64667
  20
30.85136
  30
0.0
   0
VERTEX
   5
3A7
100
AcDbEntity
   8
TITLEBLOCK
   6
CONTINUOUS
  62
      9
100
AcDbVertex
100
AcDb2dVertex
  10
-15.70917
  20
30.95961
  30
0.0
   0
VERTEX
   5
3A8
100
AcDbEntity
   8
TITLEBLOCK
   6
CONTINUOUS
  62
      9
100
AcDbVertex
100
AcDb2dVertex
  10
-15.77167
  20
31.7431
  30
0.0
   0
VERTEX
   5
3A9
100
AcDbEntity
   8
TITLEBLOCK
   6
CONTINUOUS
  62
      9
100
AcDbVertex
100
AcDb2dVertex
  10
-15.70917
  20
31.85135
  30
0.0
   0
SEQEND
   5
3AA
100
AcDbEntity
   8
TITLEBLOCK
   6
CONTINUOUS
   0
POLYLINE
   5
3AB
100
AcDbEntity
   8
TITLEBLOCK
   6
CONTINUOUS
  62
      9
100
AcDb2dPolyline
  66
      1
  10
0.0
  20
0.0
  30
0.0
  70
      1
  75
      5
   0
VERTEX
   5
3AC
100
AcDbEntity
   8
TITLEBLOCK
   6
CONTINUOUS
  62
      9
100
AcDbVertex
100
AcDb2dVertex
  10
-15.77167
  20
31.7431
  30
0.0
   0
VERTEX
   5
3AD
100
AcDbEntity
   8
TITLEBLOCK
   6
CONTINUOUS
  62
      9
100
AcDbVertex
100
AcDb2dVertex
  10
-15.83417
  20
31.85135
  30
0.0
   0
VERTEX
   5
3AE
100
AcDbEntity
   8
TITLEBLOCK
   6
CONTINUOUS
  62
      9
100
AcDbVertex
100
AcDb2dVertex
  10
-15.77167
  20
30.85135
  30
0.0
   0
VERTEX
   5
3AF
100
AcDbEntity
   8
TITLEBLOCK
   6
CONTINUOUS
  62
      9
100
AcDbVertex
100
AcDb2dVertex
  10
-15.70917
  20
30.9596
  30
0.0
   0
SEQEND
   5
3B0
100
AcDbEntity
   8
TITLEBLOCK
   6
CONTINUOUS
   0
POLYLINE
   5
3B1
100
AcDbEntity
   8
TITLEBLOCK
   6
CONTINUOUS
  62
      9
100
AcDb2dPolyline
  66
      1
  10
0.0
  20
0.0
  30
0.0
  70
      1
  75
      5
   0
VERTEX
   5
3B2
100
AcDbEntity
   8
TITLEBLOCK
   6
CONTINUOUS
  62
      9
100
AcDbVertex
100
AcDb2dVertex
  10
-15.77167
  20
30.85135
  30
0.0
   0
VERTEX
   5
3B3
100
AcDbEntity
   8
TITLEBLOCK
   6
CONTINUOUS
  62
      9
100
AcDbVertex
100
AcDb2dVertex
  10
-15.83417
  20
30.9596
  30
0.0
   0
VERTEX
   5
3B4
100
AcDbEntity
   8
TITLEBLOCK
   6
CONTINUOUS
  62
      9
100
AcDbVertex
100
AcDb2dVertex
  10
-15.89667
  20
31.74309
  30
0.0
   0
VERTEX
   5
3B5
100
AcDbEntity
   8
TITLEBLOCK
   6
CONTINUOUS
  62
      9
100
AcDbVertex
100
AcDb2dVertex
  10
-15.83417
  20
31.85134
  30
0.0
   0
SEQEND
   5
3B6
100
AcDbEntity
   8
TITLEBLOCK
   6
CONTINUOUS
   0
POLYLINE
   5
3B7
100
AcDbEntity
   8
TITLEBLOCK
   6
CONTINUOUS
  62
      9
100
AcDb2dPolyline
  66
      1
  10
0.0
  20
0.0
  30
0.0
  70
      1
  75
      5
   0
VERTEX
   5
3B8
100
AcDbEntity
   8
TITLEBLOCK
   6
CONTINUOUS
  62
      9
100
AcDbVertex
100
AcDb2dVertex
  10
-15.89667
  20
31.74309
  30
0.0
   0
VERTEX
   5
3B9
100
AcDbEntity
   8
TITLEBLOCK
   6
CONTINUOUS
  62
      9
100
AcDbVertex
100
AcDb2dVertex
  10
-15.95917
  20
31.85134
  30
0.0
   0
VERTEX
   5
3BA
100
AcDbEntity
   8
TITLEBLOCK
   6
CONTINUOUS
  62
      9
100
AcDbVertex
100
AcDb2dVertex
  10
-15.89667
  20
30.85134
  30
0.0
   0
VERTEX
   5
3BB
100
AcDbEntity
   8
TITLEBLOCK
   6
CONTINUOUS
  62
      9
100
AcDbVertex
100
AcDb2dVertex
  10
-15.83417
  20
30.95959
  30
0.0
   0
SEQEND
   5
3BC
100
AcDbEntity
   8
TITLEBLOCK
   6
CONTINUOUS
   0
POLYLINE
   5
3BD
100
AcDbEntity
   8
TITLEBLOCK
   6
CONTINUOUS
  62
      9
100
AcDb2dPolyline
  66
      1
  10
0.0
  20
0.0
  30
0.0
  70
      1
  75
      5
   0
VERTEX
   5
3BE
100
AcDbEntity
   8
TITLEBLOCK
   6
CONTINUOUS
  62
      9
100
AcDbVertex
100
AcDb2dVertex
  10
-15.89667
  20
30.85134
  30
0.0
   0
VERTEX
   5
3BF
100
AcDbEntity
   8
TITLEBLOCK
   6
CONTINUOUS
  62
      9
100
AcDbVertex
100
AcDb2dVertex
  10
-15.95917
  20
30.95959
  30
0.0
   0
VERTEX
   5
3C0
100
AcDbEntity
   8
TITLEBLOCK
   6
CONTINUOUS
  62
      9
100
AcDbVertex
100
AcDb2dVertex
  10
-16.02167
  20
31.74308
  30
0.0
   0
VERTEX
   5
3C1
100
AcDbEntity
   8
TITLEBLOCK
   6
CONTINUOUS
  62
      9
100
AcDbVertex
100
AcDb2dVertex
  10
-15.95917
  20
31.85133
  30
0.0
   0
SEQEND
   5
3C2
100
AcDbEntity
   8
TITLEBLOCK
   6
CONTINUOUS
   0
POLYLINE
   5
3C3
100
AcDbEntity
   8
TITLEBLOCK
   6
CONTINUOUS
  62
      9
100
AcDb2dPolyline
  66
      1
  10
0.0
  20
0.0
  30
0.0
  70
      1
  75
      5
   0
VERTEX
   5
3C4
100
AcDbEntity
   8
TITLEBLOCK
   6
CONTINUOUS
  62
      9
100
AcDbVertex
100
AcDb2dVertex
  10
-16.02167
  20
31.74308
  30
0.0
   0
VERTEX
   5
3C5
100
AcDbEntity
   8
TITLEBLOCK
   6
CONTINUOUS
  62
      9
100
AcDbVertex
100
AcDb2dVertex
  10
-16.08417
  20
31.85133
  30
0.0
   0
VERTEX
   5
3C6
100
AcDbEntity
   8
TITLEBLOCK
   6
CONTINUOUS
  62
      9
100
AcDbVertex
100
AcDb2dVertex
  10
-16.02167
  20
30.85133
  30
0.0
   0
VERTEX
   5
3C7
100
AcDbEntity
   8
TITLEBLOCK
   6
CONTINUOUS
  62
      9
100
AcDbVertex
100
AcDb2dVertex
  10
-15.95917
  20
30.95958
  30
0.0
   0
SEQEND
   5
3C8
100
AcDbEntity
   8
TITLEBLOCK
   6
CONTINUOUS
   0
POLYLINE
   5
3C9
100
AcDbEntity
   8
TITLEBLOCK
   6
CONTINUOUS
  62
      9
100
AcDb2dPolyline
  66
      1
  10
0.0
  20
0.0
  30
0.0
  70
      1
  75
      5
   0
VERTEX
   5
3CA
100
AcDbEntity
   8
TITLEBLOCK
   6
CONTINUOUS
  62
      9
100
AcDbVertex
100
AcDb2dVertex
  10
-16.02167
  20
30.85133
  30
0.0
   0
VERTEX
   5
3CB
100
AcDbEntity
   8
TITLEBLOCK
   6
CONTINUOUS
  62
      9
100
AcDbVertex
100
AcDb2dVertex
  10
-16.08417
  20
30.95958
  30
0.0
   0
VERTEX
   5
3CC
100
AcDbEntity
   8
TITLEBLOCK
   6
CONTINUOUS
  62
      9
100
AcDbVertex
100
AcDb2dVertex
  10
-16.14667
  20
31.74307
  30
0.0
   0
VERTEX
   5
3CD
100
AcDbEntity
   8
TITLEBLOCK
   6
CONTINUOUS
  62
      9
100
AcDbVertex
100
AcDb2dVertex
  10
-16.08417
  20
31.85132
  30
0.0
   0
SEQEND
   5
3CE
100
AcDbEntity
   8
TITLEBLOCK
   6
CONTINUOUS
   0
POLYLINE
   5
3CF
100
AcDbEntity
   8
TITLEBLOCK
   6
CONTINUOUS
  62
      9
100
AcDb2dPolyline
  66
      1
  10
0.0
  20
0.0
  30
0.0
  70
      1
  75
      5
   0
VERTEX
   5
3D0
100
AcDbEntity
   8
TITLEBLOCK
   6
CONTINUOUS
  62
      9
100
AcDbVertex
100
AcDb2dVertex
  10
-16.14667
  20
31.74307
  30
0.0
   0
VERTEX
   5
3D1
100
AcDbEntity
   8
TITLEBLOCK
   6
CONTINUOUS
  62
      9
100
AcDbVertex
100
AcDb2dVertex
  10
-16.20917
  20
31.85132
  30
0.0
   0
VERTEX
   5
3D2
100
AcDbEntity
   8
TITLEBLOCK
   6
CONTINUOUS
  62
      9
100
AcDbVertex
100
AcDb2dVertex
  10
-16.14667
  20
30.85132
  30
0.0
   0
VERTEX
   5
3D3
100
AcDbEntity
   8
TITLEBLOCK
   6
CONTINUOUS
  62
      9
100
AcDbVertex
100
AcDb2dVertex
  10
-16.08417
  20
30.95957
  30
0.0
   0
SEQEND
   5
3D4
100
AcDbEntity
   8
TITLEBLOCK
   6
CONTINUOUS
   0
POLYLINE
   5
3D5
100
AcDbEntity
   8
TITLEBLOCK
   6
CONTINUOUS
  62
      9
100
AcDb2dPolyline
  66
      1
  10
0.0
  20
0.0
  30
0.0
  70
      1
  75
      5
   0
VERTEX
   5
3D6
100
AcDbEntity
   8
TITLEBLOCK
   6
CONTINUOUS
  62
      9
100
AcDbVertex
100
AcDb2dVertex
  10
-16.14667
  20
30.85132
  30
0.0
   0
VERTEX
   5
3D7
100
AcDbEntity
   8
TITLEBLOCK
   6
CONTINUOUS
  62
      9
100
AcDbVertex
100
AcDb2dVertex
  10
-16.20917
  20
30.95957
  30
0.0
   0
VERTEX
   5
3D8
100
AcDbEntity
   8
TITLEBLOCK
   6
CONTINUOUS
  62
      9
100
AcDbVertex
100
AcDb2dVertex
  10
-16.27167
  20
31.74306
  30
0.0
   0
VERTEX
   5
3D9
100
AcDbEntity
   8
TITLEBLOCK
   6
CONTINUOUS
  62
      9
100
AcDbVertex
100
AcDb2dVertex
  10
-16.20917
  20
31.85131
  30
0.0
   0
SEQEND
   5
3DA
100
AcDbEntity
   8
TITLEBLOCK
   6
CONTINUOUS
   0
POLYLINE
   5
3DB
100
AcDbEntity
   8
TITLEBLOCK
   6
CONTINUOUS
  62
      9
100
AcDb2dPolyline
  66
      1
  10
0.0
  20
0.0
  30
0.0
  70
      1
  75
      5
   0
VERTEX
   5
3DC
100
AcDbEntity
   8
TITLEBLOCK
   6
CONTINUOUS
  62
      9
100
AcDbVertex
100
AcDb2dVertex
  10
-16.27167
  20
31.74306
  30
0.0
   0
VERTEX
   5
3DD
100
AcDbEntity
   8
TITLEBLOCK
   6
CONTINUOUS
  62
      9
100
AcDbVertex
100
AcDb2dVertex
  10
-16.33417
  20
31.85131
  30
0.0
   0
VERTEX
   5
3DE
100
AcDbEntity
   8
TITLEBLOCK
   6
CONTINUOUS
  62
      9
100
AcDbVertex
100
AcDb2dVertex
  10
-16.27167
  20
30.85131
  30
0.0
   0
VERTEX
   5
3DF
100
AcDbEntity
   8
TITLEBLOCK
   6
CONTINUOUS
  62
      9
100
AcDbVertex
100
AcDb2dVertex
  10
-16.20917
  20
30.95956
  30
0.0
   0
SEQEND
   5
3E0
100
AcDbEntity
   8
TITLEBLOCK
   6
CONTINUOUS
   0
POLYLINE
   5
3E1
100
AcDbEntity
   8
TITLEBLOCK
   6
CONTINUOUS
  62
      9
100
AcDb2dPolyline
  66
      1
  10
0.0
  20
0.0
  30
0.0
  70
      1
  75
      5
   0
VERTEX
   5
3E2
100
AcDbEntity
   8
TITLEBLOCK
   6
CONTINUOUS
  62
      9
100
AcDbVertex
100
AcDb2dVertex
  10
-16.27167
  20
30.85131
  30
0.0
   0
VERTEX
   5
3E3
100
AcDbEntity
   8
TITLEBLOCK
   6
CONTINUOUS
  62
      9
100
AcDbVertex
100
AcDb2dVertex
  10
-16.33417
  20
30.95956
  30
0.0
   0
VERTEX
   5
3E4
100
AcDbEntity
   8
TITLEBLOCK
   6
CONTINUOUS
  62
      9
100
AcDbVertex
100
AcDb2dVertex
  10
-16.39667
  20
31.74305
  30
0.0
   0
VERTEX
   5
3E5
100
AcDbEntity
   8
TITLEBLOCK
   6
CONTINUOUS
  62
      9
100
AcDbVertex
100
AcDb2dVertex
  10
-16.33417
  20
31.8513
  30
0.0
   0
SEQEND
   5
3E6
100
AcDbEntity
   8
TITLEBLOCK
   6
CONTINUOUS
   0
POLYLINE
   5
3E7
100
AcDbEntity
   8
TITLEBLOCK
   6
CONTINUOUS
  62
      9
100
AcDb2dPolyline
  66
      1
  10
0.0
  20
0.0
  30
0.0
  70
      1
  75
      5
   0
VERTEX
   5
3E8
100
AcDbEntity
   8
TITLEBLOCK
   6
CONTINUOUS
  62
      9
100
AcDbVertex
100
AcDb2dVertex
  10
-16.39667
  20
31.74305
  30
0.0
   0
VERTEX
   5
3E9
100
AcDbEntity
   8
TITLEBLOCK
   6
CONTINUOUS
  62
      9
100
AcDbVertex
100
AcDb2dVertex
  10
-16.45917
  20
31.8513
  30
0.0
   0
VERTEX
   5
3EA
100
AcDbEntity
   8
TITLEBLOCK
   6
CONTINUOUS
  62
      9
100
AcDbVertex
100
AcDb2dVertex
  10
-16.39667
  20
30.8513
  30
0.0
   0
VERTEX
   5
3EB
100
AcDbEntity
   8
TITLEBLOCK
   6
CONTINUOUS
  62
      9
100
AcDbVertex
100
AcDb2dVertex
  10
-16.33417
  20
30.95955
  30
0.0
   0
SEQEND
   5
3EC
100
AcDbEntity
   8
TITLEBLOCK
   6
CONTINUOUS
   0
POLYLINE
   5
3ED
100
AcDbEntity
   8
TITLEBLOCK
   6
CONTINUOUS
  62
      9
100
AcDb2dPolyline
  66
      1
  10
0.0
  20
0.0
  30
0.0
  70
      1
  75
      5
   0
VERTEX
   5
3EE
100
AcDbEntity
   8
TITLEBLOCK
   6
CONTINUOUS
  62
      9
100
AcDbVertex
100
AcDb2dVertex
  10
-16.39667
  20
30.8513
  30
0.0
   0
VERTEX
   5
3EF
100
AcDbEntity
   8
TITLEBLOCK
   6
CONTINUOUS
  62
      9
100
AcDbVertex
100
AcDb2dVertex
  10
-16.45917
  20
30.95955
  30
0.0
   0
VERTEX
   5
3F0
100
AcDbEntity
   8
TITLEBLOCK
   6
CONTINUOUS
  62
      9
100
AcDbVertex
100
AcDb2dVertex
  10
-16.52167
  20
31.74304
  30
0.0
   0
VERTEX
   5
3F1
100
AcDbEntity
   8
TITLEBLOCK
   6
CONTINUOUS
  62
      9
100
AcDbVertex
100
AcDb2dVertex
  10
-16.45917
  20
31.85129
  30
0.0
   0
SEQEND
   5
3F2
100
AcDbEntity
   8
TITLEBLOCK
   6
CONTINUOUS
   0
POLYLINE
   5
3F3
100
AcDbEntity
   8
TITLEBLOCK
   6
CONTINUOUS
  62
      9
100
AcDb2dPolyline
  66
      1
  10
0.0
  20
0.0
  30
0.0
  70
      1
  75
      5
   0
VERTEX
   5
3F4
100
AcDbEntity
   8
TITLEBLOCK
   6
CONTINUOUS
  62
      9
100
AcDbVertex
100
AcDb2dVertex
  10
-16.52167
  20
31.74304
  30
0.0
   0
VERTEX
   5
3F5
100
AcDbEntity
   8
TITLEBLOCK
   6
CONTINUOUS
  62
      9
100
AcDbVertex
100
AcDb2dVertex
  10
-16.58417
  20
31.85129
  30
0.0
   0
VERTEX
   5
3F6
100
AcDbEntity
   8
TITLEBLOCK
   6
CONTINUOUS
  62
      9
100
AcDbVertex
100
AcDb2dVertex
  10
-16.52167
  20
30.85129
  30
0.0
   0
VERTEX
   5
3F7
100
AcDbEntity
   8
TITLEBLOCK
   6
CONTINUOUS
  62
      9
100
AcDbVertex
100
AcDb2dVertex
  10
-16.45917
  20
30.95954
  30
0.0
   0
SEQEND
   5
3F8
100
AcDbEntity
   8
TITLEBLOCK
   6
CONTINUOUS
   0
POLYLINE
   5
3F9
100
AcDbEntity
   8
TITLEBLOCK
   6
CONTINUOUS
  62
      9
100
AcDb2dPolyline
  66
      1
  10
0.0
  20
0.0
  30
0.0
  70
      1
  75
      5
   0
VERTEX
   5
3FA
100
AcDbEntity
   8
TITLEBLOCK
   6
CONTINUOUS
  62
      9
100
AcDbVertex
100
AcDb2dVertex
  10
-16.52167
  20
30.85129
  30
0.0
   0
VERTEX
   5
3FB
100
AcDbEntity
   8
TITLEBLOCK
   6
CONTINUOUS
  62
      9
100
AcDbVertex
100
AcDb2dVertex
  10
-16.58417
  20
30.95954
  30
0.0
   0
VERTEX
   5
3FC
100
AcDbEntity
   8
TITLEBLOCK
   6
CONTINUOUS
  62
      9
100
AcDbVertex
100
AcDb2dVertex
  10
-16.64667
  20
31.74303
  30
0.0
   0
VERTEX
   5
3FD
100
AcDbEntity
   8
TITLEBLOCK
   6
CONTINUOUS
  62
      9
100
AcDbVertex
100
AcDb2dVertex
  10
-16.58417
  20
31.85128
  30
0.0
   0
SEQEND
   5
3FE
100
AcDbEntity
   8
TITLEBLOCK
   6
CONTINUOUS
   0
POLYLINE
   5
3FF
100
AcDbEntity
   8
TITLEBLOCK
   6
CONTINUOUS
  62
      9
100
AcDb2dPolyline
  66
      1
  10
0.0
  20
0.0
  30
0.0
  70
      1
  75
      5
   0
VERTEX
   5
400
100
AcDbEntity
   8
TITLEBLOCK
   6
CONTINUOUS
  62
      9
100
AcDbVertex
100
AcDb2dVertex
  10
-16.64667
  20
31.74303
  30
0.0
   0
VERTEX
   5
401
100
AcDbEntity
   8
TITLEBLOCK
   6
CONTINUOUS
  62
      9
100
AcDbVertex
100
AcDb2dVertex
  10
-16.70917
  20
31.85128
  30
0.0
   0
VERTEX
   5
402
100
AcDbEntity
   8
TITLEBLOCK
   6
CONTINUOUS
  62
      9
100
AcDbVertex
100
AcDb2dVertex
  10
-16.64667
  20
30.85128
  30
0.0
   0
VERTEX
   5
403
100
AcDbEntity
   8
TITLEBLOCK
   6
CONTINUOUS
  62
      9
100
AcDbVertex
100
AcDb2dVertex
  10
-16.58417
  20
30.95953
  30
0.0
   0
SEQEND
   5
404
100
AcDbEntity
   8
TITLEBLOCK
   6
CONTINUOUS
   0
POLYLINE
   5
405
100
AcDbEntity
   8
TITLEBLOCK
   6
CONTINUOUS
  62
      9
100
AcDb2dPolyline
  66
      1
  10
0.0
  20
0.0
  30
0.0
  70
      1
  75
      5
   0
VERTEX
   5
406
100
AcDbEntity
   8
TITLEBLOCK
   6
CONTINUOUS
  62
      9
100
AcDbVertex
100
AcDb2dVertex
  10
-16.64667
  20
30.85128
  30
0.0
   0
VERTEX
   5
407
100
AcDbEntity
   8
TITLEBLOCK
   6
CONTINUOUS
  62
      9
100
AcDbVertex
100
AcDb2dVertex
  10
-16.70917
  20
30.95953
  30
0.0
   0
VERTEX
   5
408
100
AcDbEntity
   8
TITLEBLOCK
   6
CONTINUOUS
  62
      9
100
AcDbVertex
100
AcDb2dVertex
  10
-16.77167
  20
31.74302
  30
0.0
   0
VERTEX
   5
409
100
AcDbEntity
   8
TITLEBLOCK
   6
CONTINUOUS
  62
      9
100
AcDbVertex
100
AcDb2dVertex
  10
-16.70917
  20
31.85127
  30
0.0
   0
SEQEND
   5
40A
100
AcDbEntity
   8
TITLEBLOCK
   6
CONTINUOUS
   0
POLYLINE
   5
40B
100
AcDbEntity
   8
TITLEBLOCK
   6
CONTINUOUS
  62
      9
100
AcDb2dPolyline
  66
      1
  10
0.0
  20
0.0
  30
0.0
  70
      1
  75
      5
   0
VERTEX
   5
40C
100
AcDbEntity
   8
TITLEBLOCK
   6
CONTINUOUS
  62
      9
100
AcDbVertex
100
AcDb2dVertex
  10
-16.77167
  20
31.74302
  30
0.0
   0
VERTEX
   5
40D
100
AcDbEntity
   8
TITLEBLOCK
   6
CONTINUOUS
  62
      9
100
AcDbVertex
100
AcDb2dVertex
  10
-16.83417
  20
31.85127
  30
0.0
   0
VERTEX
   5
40E
100
AcDbEntity
   8
TITLEBLOCK
   6
CONTINUOUS
  62
      9
100
AcDbVertex
100
AcDb2dVertex
  10
-16.77167
  20
30.85127
  30
0.0
   0
VERTEX
   5
40F
100
AcDbEntity
   8
TITLEBLOCK
   6
CONTINUOUS
  62
      9
100
AcDbVertex
100
AcDb2dVertex
  10
-16.70917
  20
30.95952
  30
0.0
   0
SEQEND
   5
410
100
AcDbEntity
   8
TITLEBLOCK
   6
CONTINUOUS
   0
POLYLINE
   5
411
100
AcDbEntity
   8
TITLEBLOCK
   6
CONTINUOUS
  62
      9
100
AcDb2dPolyline
  66
      1
  10
0.0
  20
0.0
  30
0.0
  70
      1
  75
      5
   0
VERTEX
   5
412
100
AcDbEntity
   8
TITLEBLOCK
   6
CONTINUOUS
  62
      9
100
AcDbVertex
100
AcDb2dVertex
  10
-16.77167
  20
30.85127
  30
0.0
   0
VERTEX
   5
413
100
AcDbEntity
   8
TITLEBLOCK
   6
CONTINUOUS
  62
      9
100
AcDbVertex
100
AcDb2dVertex
  10
-16.83417
  20
30.95952
  30
0.0
   0
VERTEX
   5
414
100
AcDbEntity
   8
TITLEBLOCK
   6
CONTINUOUS
  62
      9
100
AcDbVertex
100
AcDb2dVertex
  10
-16.89667
  20
31.74301
  30
0.0
   0
VERTEX
   5
415
100
AcDbEntity
   8
TITLEBLOCK
   6
CONTINUOUS
  62
      9
100
AcDbVertex
100
AcDb2dVertex
  10
-16.83417
  20
31.85126
  30
0.0
   0
SEQEND
   5
416
100
AcDbEntity
   8
TITLEBLOCK
   6
CONTINUOUS
   0
POLYLINE
   5
417
100
AcDbEntity
   8
TITLEBLOCK
   6
CONTINUOUS
  62
      9
100
AcDb2dPolyline
  66
      1
  10
0.0
  20
0.0
  30
0.0
  70
      1
  75
      5
   0
VERTEX
   5
418
100
AcDbEntity
   8
TITLEBLOCK
   6
CONTINUOUS
  62
      9
100
AcDbVertex
100
AcDb2dVertex
  10
-16.89667
  20
31.74301
  30
0.0
   0
VERTEX
   5
419
100
AcDbEntity
   8
TITLEBLOCK
   6
CONTINUOUS
  62
      9
100
AcDbVertex
100
AcDb2dVertex
  10
-16.95917
  20
31.85126
  30
0.0
   0
VERTEX
   5
41A
100
AcDbEntity
   8
TITLEBLOCK
   6
CONTINUOUS
  62
      9
100
AcDbVertex
100
AcDb2dVertex
  10
-16.89667
  20
30.85126
  30
0.0
   0
VERTEX
   5
41B
100
AcDbEntity
   8
TITLEBLOCK
   6
CONTINUOUS
  62
      9
100
AcDbVertex
100
AcDb2dVertex
  10
-16.83417
  20
30.95951
  30
0.0
   0
SEQEND
   5
41C
100
AcDbEntity
   8
TITLEBLOCK
   6
CONTINUOUS
   0
POLYLINE
   5
41D
100
AcDbEntity
   8
TITLEBLOCK
   6
CONTINUOUS
  62
      9
100
AcDb2dPolyline
  66
      1
  10
0.0
  20
0.0
  30
0.0
  70
      1
  75
      5
   0
VERTEX
   5
41E
100
AcDbEntity
   8
TITLEBLOCK
   6
CONTINUOUS
  62
      9
100
AcDbVertex
100
AcDb2dVertex
  10
-16.89667
  20
30.85126
  30
0.0
   0
VERTEX
   5
41F
100
AcDbEntity
   8
TITLEBLOCK
   6
CONTINUOUS
  62
      9
100
AcDbVertex
100
AcDb2dVertex
  10
-16.95917
  20
30.95951
  30
0.0
   0
VERTEX
   5
420
100
AcDbEntity
   8
TITLEBLOCK
   6
CONTINUOUS
  62
      9
100
AcDbVertex
100
AcDb2dVertex
  10
-17.02167
  20
31.743
  30
0.0
   0
VERTEX
   5
421
100
AcDbEntity
   8
TITLEBLOCK
   6
CONTINUOUS
  62
      9
100
AcDbVertex
100
AcDb2dVertex
  10
-16.95917
  20
31.85125
  30
0.0
   0
SEQEND
   5
422
100
AcDbEntity
   8
TITLEBLOCK
   6
CONTINUOUS
   0
POLYLINE
   5
423
100
AcDbEntity
   8
TITLEBLOCK
   6
CONTINUOUS
  62
      9
100
AcDb2dPolyline
  66
      1
  10
0.0
  20
0.0
  30
0.0
  70
      1
  75
      5
   0
VERTEX
   5
424
100
AcDbEntity
   8
TITLEBLOCK
   6
CONTINUOUS
  62
      9
100
AcDbVertex
100
AcDb2dVertex
  10
-17.02167
  20
31.743
  30
0.0
   0
VERTEX
   5
425
100
AcDbEntity
   8
TITLEBLOCK
   6
CONTINUOUS
  62
      9
100
AcDbVertex
100
AcDb2dVertex
  10
-17.08417
  20
31.85125
  30
0.0
   0
VERTEX
   5
426
100
AcDbEntity
   8
TITLEBLOCK
   6
CONTINUOUS
  62
      9
100
AcDbVertex
100
AcDb2dVertex
  10
-17.02167
  20
30.85125
  30
0.0
   0
VERTEX
   5
427
100
AcDbEntity
   8
TITLEBLOCK
   6
CONTINUOUS
  62
      9
100
AcDbVertex
100
AcDb2dVertex
  10
-16.95917
  20
30.9595
  30
0.0
   0
SEQEND
   5
428
100
AcDbEntity
   8
TITLEBLOCK
   6
CONTINUOUS
   0
POLYLINE
   5
429
100
AcDbEntity
   8
TITLEBLOCK
   6
CONTINUOUS
  62
      9
100
AcDb2dPolyline
  66
      1
  10
0.0
  20
0.0
  30
0.0
  70
      1
  75
      5
   0
VERTEX
   5
42A
100
AcDbEntity
   8
TITLEBLOCK
   6
CONTINUOUS
  62
      9
100
AcDbVertex
100
AcDb2dVertex
  10
-17.02167
  20
30.85125
  30
0.0
   0
VERTEX
   5
42B
100
AcDbEntity
   8
TITLEBLOCK
   6
CONTINUOUS
  62
      9
100
AcDbVertex
100
AcDb2dVertex
  10
-17.08417
  20
30.9595
  30
0.0
   0
VERTEX
   5
42C
100
AcDbEntity
   8
TITLEBLOCK
   6
CONTINUOUS
  62
      9
100
AcDbVertex
100
AcDb2dVertex
  10
-17.14667
  20
31.74299
  30
0.0
   0
VERTEX
   5
42D
100
AcDbEntity
   8
TITLEBLOCK
   6
CONTINUOUS
  62
      9
100
AcDbVertex
100
AcDb2dVertex
  10
-17.08417
  20
31.85124
  30
0.0
   0
SEQEND
   5
42E
100
AcDbEntity
   8
TITLEBLOCK
   6
CONTINUOUS
   0
POLYLINE
   5
42F
100
AcDbEntity
   8
TITLEBLOCK
   6
CONTINUOUS
  62
      9
100
AcDb2dPolyline
  66
      1
  10
0.0
  20
0.0
  30
0.0
  70
      1
  75
      5
   0
VERTEX
   5
430
100
AcDbEntity
   8
TITLEBLOCK
   6
CONTINUOUS
  62
      9
100
AcDbVertex
100
AcDb2dVertex
  10
-17.14667
  20
31.74299
  30
0.0
   0
VERTEX
   5
431
100
AcDbEntity
   8
TITLEBLOCK
   6
CONTINUOUS
  62
      9
100
AcDbVertex
100
AcDb2dVertex
  10
-17.20917
  20
31.85124
  30
0.0
   0
VERTEX
   5
432
100
AcDbEntity
   8
TITLEBLOCK
   6
CONTINUOUS
  62
      9
100
AcDbVertex
100
AcDb2dVertex
  10
-17.14667
  20
30.85124
  30
0.0
   0
VERTEX
   5
433
100
AcDbEntity
   8
TITLEBLOCK
   6
CONTINUOUS
  62
      9
100
AcDbVertex
100
AcDb2dVertex
  10
-17.08417
  20
30.95949
  30
0.0
   0
SEQEND
   5
434
100
AcDbEntity
   8
TITLEBLOCK
   6
CONTINUOUS
   0
POLYLINE
   5
435
100
AcDbEntity
   8
TITLEBLOCK
   6
CONTINUOUS
  62
      9
100
AcDb2dPolyline
  66
      1
  10
0.0
  20
0.0
  30
0.0
  70
      1
  75
      5
   0
VERTEX
   5
436
100
AcDbEntity
   8
TITLEBLOCK
   6
CONTINUOUS
  62
      9
100
AcDbVertex
100
AcDb2dVertex
  10
-17.14667
  20
30.85124
  30
0.0
   0
VERTEX
   5
437
100
AcDbEntity
   8
TITLEBLOCK
   6
CONTINUOUS
  62
      9
100
AcDbVertex
100
AcDb2dVertex
  10
-17.20917
  20
30.95949
  30
0.0
   0
VERTEX
   5
438
100
AcDbEntity
   8
TITLEBLOCK
   6
CONTINUOUS
  62
      9
100
AcDbVertex
100
AcDb2dVertex
  10
-17.27167
  20
31.74298
  30
0.0
   0
VERTEX
   5
439
100
AcDbEntity
   8
TITLEBLOCK
   6
CONTINUOUS
  62
      9
100
AcDbVertex
100
AcDb2dVertex
  10
-17.20917
  20
31.85123
  30
0.0
   0
SEQEND
   5
43A
100
AcDbEntity
   8
TITLEBLOCK
   6
CONTINUOUS
   0
POLYLINE
   5
43B
100
AcDbEntity
   8
TITLEBLOCK
   6
CONTINUOUS
  62
      9
100
AcDb2dPolyline
  66
      1
  10
0.0
  20
0.0
  30
0.0
  70
      1
  75
      5
   0
VERTEX
   5
43C
100
AcDbEntity
   8
TITLEBLOCK
   6
CONTINUOUS
  62
      9
100
AcDbVertex
100
AcDb2dVertex
  10
-17.27167
  20
31.74298
  30
0.0
   0
VERTEX
   5
43D
100
AcDbEntity
   8
TITLEBLOCK
   6
CONTINUOUS
  62
      9
100
AcDbVertex
100
AcDb2dVertex
  10
-17.33417
  20
31.85123
  30
0.0
   0
VERTEX
   5
43E
100
AcDbEntity
   8
TITLEBLOCK
   6
CONTINUOUS
  62
      9
100
AcDbVertex
100
AcDb2dVertex
  10
-17.27167
  20
30.85123
  30
0.0
   0
VERTEX
   5
43F
100
AcDbEntity
   8
TITLEBLOCK
   6
CONTINUOUS
  62
      9
100
AcDbVertex
100
AcDb2dVertex
  10
-17.20917
  20
30.95948
  30
0.0
   0
SEQEND
   5
440
100
AcDbEntity
   8
TITLEBLOCK
   6
CONTINUOUS
   0
POLYLINE
   5
441
100
AcDbEntity
   8
TITLEBLOCK
   6
CONTINUOUS
  62
      9
100
AcDb2dPolyline
  66
      1
  10
0.0
  20
0.0
  30
0.0
  70
      1
  75
      5
   0
VERTEX
   5
442
100
AcDbEntity
   8
TITLEBLOCK
   6
CONTINUOUS
  62
      9
100
AcDbVertex
100
AcDb2dVertex
  10
-17.27167
  20
30.85123
  30
0.0
   0
VERTEX
   5
443
100
AcDbEntity
   8
TITLEBLOCK
   6
CONTINUOUS
  62
      9
100
AcDbVertex
100
AcDb2dVertex
  10
-17.33417
  20
30.95948
  30
0.0
   0
VERTEX
   5
444
100
AcDbEntity
   8
TITLEBLOCK
   6
CONTINUOUS
  62
      9
100
AcDbVertex
100
AcDb2dVertex
  10
-17.39667
  20
31.74297
  30
0.0
   0
VERTEX
   5
445
100
AcDbEntity
   8
TITLEBLOCK
   6
CONTINUOUS
  62
      9
100
AcDbVertex
100
AcDb2dVertex
  10
-17.33417
  20
31.85122
  30
0.0
   0
SEQEND
   5
446
100
AcDbEntity
   8
TITLEBLOCK
   6
CONTINUOUS
   0
POLYLINE
   5
447
100
AcDbEntity
   8
TITLEBLOCK
   6
CONTINUOUS
  62
      9
100
AcDb2dPolyline
  66
      1
  10
0.0
  20
0.0
  30
0.0
  70
      1
  75
      5
   0
VERTEX
   5
448
100
AcDbEntity
   8
TITLEBLOCK
   6
CONTINUOUS
  62
      9
100
AcDbVertex
100
AcDb2dVertex
  10
-17.39667
  20
31.74297
  30
0.0
   0
VERTEX
   5
449
100
AcDbEntity
   8
TITLEBLOCK
   6
CONTINUOUS
  62
      9
100
AcDbVertex
100
AcDb2dVertex
  10
-17.45917
  20
31.85122
  30
0.0
   0
VERTEX
   5
44A
100
AcDbEntity
   8
TITLEBLOCK
   6
CONTINUOUS
  62
      9
100
AcDbVertex
100
AcDb2dVertex
  10
-17.39667
  20
30.85122
  30
0.0
   0
VERTEX
   5
44B
100
AcDbEntity
   8
TITLEBLOCK
   6
CONTINUOUS
  62
      9
100
AcDbVertex
100
AcDb2dVertex
  10
-17.33417
  20
30.95947
  30
0.0
   0
SEQEND
   5
44C
100
AcDbEntity
   8
TITLEBLOCK
   6
CONTINUOUS
   0
POLYLINE
   5
44D
100
AcDbEntity
   8
TITLEBLOCK
   6
CONTINUOUS
  62
      9
100
AcDb2dPolyline
  66
      1
  10
0.0
  20
0.0
  30
0.0
  70
      1
  75
      5
   0
VERTEX
   5
44E
100
AcDbEntity
   8
TITLEBLOCK
   6
CONTINUOUS
  62
      9
100
AcDbVertex
100
AcDb2dVertex
  10
-17.39667
  20
30.85122
  30
0.0
   0
VERTEX
   5
44F
100
AcDbEntity
   8
TITLEBLOCK
   6
CONTINUOUS
  62
      9
100
AcDbVertex
100
AcDb2dVertex
  10
-17.45917
  20
30.95947
  30
0.0
   0
VERTEX
   5
450
100
AcDbEntity
   8
TITLEBLOCK
   6
CONTINUOUS
  62
      9
100
AcDbVertex
100
AcDb2dVertex
  10
-17.52167
  20
31.74296
  30
0.0
   0
VERTEX
   5
451
100
AcDbEntity
   8
TITLEBLOCK
   6
CONTINUOUS
  62
      9
100
AcDbVertex
100
AcDb2dVertex
  10
-17.45917
  20
31.85121
  30
0.0
   0
SEQEND
   5
452
100
AcDbEntity
   8
TITLEBLOCK
   6
CONTINUOUS
   0
POLYLINE
   5
453
100
AcDbEntity
   8
TITLEBLOCK
   6
CONTINUOUS
  62
      9
100
AcDb2dPolyline
  66
      1
  10
0.0
  20
0.0
  30
0.0
  70
      1
  75
      5
   0
VERTEX
   5
454
100
AcDbEntity
   8
TITLEBLOCK
   6
CONTINUOUS
  62
      9
100
AcDbVertex
100
AcDb2dVertex
  10
-17.52167
  20
31.74296
  30
0.0
   0
VERTEX
   5
455
100
AcDbEntity
   8
TITLEBLOCK
   6
CONTINUOUS
  62
      9
100
AcDbVertex
100
AcDb2dVertex
  10
-17.58417
  20
31.85121
  30
0.0
   0
VERTEX
   5
456
100
AcDbEntity
   8
TITLEBLOCK
   6
CONTINUOUS
  62
      9
100
AcDbVertex
100
AcDb2dVertex
  10
-17.52167
  20
30.85121
  30
0.0
   0
VERTEX
   5
457
100
AcDbEntity
   8
TITLEBLOCK
   6
CONTINUOUS
  62
      9
100
AcDbVertex
100
AcDb2dVertex
  10
-17.45917
  20
30.95946
  30
0.0
   0
SEQEND
   5
458
100
AcDbEntity
   8
TITLEBLOCK
   6
CONTINUOUS
   0
POLYLINE
   5
459
100
AcDbEntity
   8
TITLEBLOCK
   6
CONTINUOUS
  62
      9
100
AcDb2dPolyline
  66
      1
  10
0.0
  20
0.0
  30
0.0
  70
      1
  75
      5
   0
VERTEX
   5
45A
100
AcDbEntity
   8
TITLEBLOCK
   6
CONTINUOUS
  62
      9
100
AcDbVertex
100
AcDb2dVertex
  10
-17.52167
  20
30.85121
  30
0.0
   0
VERTEX
   5
45B
100
AcDbEntity
   8
TITLEBLOCK
   6
CONTINUOUS
  62
      9
100
AcDbVertex
100
AcDb2dVertex
  10
-17.58417
  20
30.95946
  30
0.0
   0
VERTEX
   5
45C
100
AcDbEntity
   8
TITLEBLOCK
   6
CONTINUOUS
  62
      9
100
AcDbVertex
100
AcDb2dVertex
  10
-17.64667
  20
31.74295
  30
0.0
   0
VERTEX
   5
45D
100
AcDbEntity
   8
TITLEBLOCK
   6
CONTINUOUS
  62
      9
100
AcDbVertex
100
AcDb2dVertex
  10
-17.58417
  20
31.8512
  30
0.0
   0
SEQEND
   5
45E
100
AcDbEntity
   8
TITLEBLOCK
   6
CONTINUOUS
   0
POLYLINE
   5
45F
100
AcDbEntity
   8
TITLEBLOCK
   6
CONTINUOUS
  62
      9
100
AcDb2dPolyline
  66
      1
  10
0.0
  20
0.0
  30
0.0
  70
      1
  75
      5
   0
VERTEX
   5
460
100
AcDbEntity
   8
TITLEBLOCK
   6
CONTINUOUS
  62
      9
100
AcDbVertex
100
AcDb2dVertex
  10
-17.64667
  20
31.74295
  30
0.0
   0
VERTEX
   5
461
100
AcDbEntity
   8
TITLEBLOCK
   6
CONTINUOUS
  62
      9
100
AcDbVertex
100
AcDb2dVertex
  10
-17.70917
  20
31.8512
  30
0.0
   0
VERTEX
   5
462
100
AcDbEntity
   8
TITLEBLOCK
   6
CONTINUOUS
  62
      9
100
AcDbVertex
100
AcDb2dVertex
  10
-17.64667
  20
30.8512
  30
0.0
   0
VERTEX
   5
463
100
AcDbEntity
   8
TITLEBLOCK
   6
CONTINUOUS
  62
      9
100
AcDbVertex
100
AcDb2dVertex
  10
-17.58417
  20
30.95945
  30
0.0
   0
SEQEND
   5
464
100
AcDbEntity
   8
TITLEBLOCK
   6
CONTINUOUS
   0
POLYLINE
   5
465
100
AcDbEntity
   8
TITLEBLOCK
   6
CONTINUOUS
  62
      9
100
AcDb2dPolyline
  66
      1
  10
0.0
  20
0.0
  30
0.0
  70
      1
  75
      5
   0
VERTEX
   5
466
100
AcDbEntity
   8
TITLEBLOCK
   6
CONTINUOUS
  62
      9
100
AcDbVertex
100
AcDb2dVertex
  10
-17.64667
  20
30.8512
  30
0.0
   0
VERTEX
   5
467
100
AcDbEntity
   8
TITLEBLOCK
   6
CONTINUOUS
  62
      9
100
AcDbVertex
100
AcDb2dVertex
  10
-17.70917
  20
30.95945
  30
0.0
   0
VERTEX
   5
468
100
AcDbEntity
   8
TITLEBLOCK
   6
CONTINUOUS
  62
      9
100
AcDbVertex
100
AcDb2dVertex
  10
-17.77167
  20
31.74294
  30
0.0
   0
VERTEX
   5
469
100
AcDbEntity
   8
TITLEBLOCK
   6
CONTINUOUS
  62
      9
100
AcDbVertex
100
AcDb2dVertex
  10
-17.70917
  20
31.85119
  30
0.0
   0
SEQEND
   5
46A
100
AcDbEntity
   8
TITLEBLOCK
   6
CONTINUOUS
   0
POLYLINE
   5
46B
100
AcDbEntity
   8
TITLEBLOCK
   6
CONTINUOUS
  62
      9
100
AcDb2dPolyline
  66
      1
  10
0.0
  20
0.0
  30
0.0
  70
      1
  75
      5
   0
VERTEX
   5
46C
100
AcDbEntity
   8
TITLEBLOCK
   6
CONTINUOUS
  62
      9
100
AcDbVertex
100
AcDb2dVertex
  10
-17.77167
  20
31.74294
  30
0.0
   0
VERTEX
   5
46D
100
AcDbEntity
   8
TITLEBLOCK
   6
CONTINUOUS
  62
      9
100
AcDbVertex
100
AcDb2dVertex
  10
-17.83417
  20
31.85119
  30
0.0
   0
VERTEX
   5
46E
100
AcDbEntity
   8
TITLEBLOCK
   6
CONTINUOUS
  62
      9
100
AcDbVertex
100
AcDb2dVertex
  10
-17.77167
  20
30.85119
  30
0.0
   0
VERTEX
   5
46F
100
AcDbEntity
   8
TITLEBLOCK
   6
CONTINUOUS
  62
      9
100
AcDbVertex
100
AcDb2dVertex
  10
-17.70917
  20
30.95944
  30
0.0
   0
SEQEND
   5
470
100
AcDbEntity
   8
TITLEBLOCK
   6
CONTINUOUS
   0
POLYLINE
   5
471
100
AcDbEntity
   8
TITLEBLOCK
   6
CONTINUOUS
  62
      9
100
AcDb2dPolyline
  66
      1
  10
0.0
  20
0.0
  30
0.0
  70
      1
  75
      5
   0
VERTEX
   5
472
100
AcDbEntity
   8
TITLEBLOCK
   6
CONTINUOUS
  62
      9
100
AcDbVertex
100
AcDb2dVertex
  10
-17.77167
  20
30.85119
  30
0.0
   0
VERTEX
   5
473
100
AcDbEntity
   8
TITLEBLOCK
   6
CONTINUOUS
  62
      9
100
AcDbVertex
100
AcDb2dVertex
  10
-17.83417
  20
30.95944
  30
0.0
   0
VERTEX
   5
474
100
AcDbEntity
   8
TITLEBLOCK
   6
CONTINUOUS
  62
      9
100
AcDbVertex
100
AcDb2dVertex
  10
-17.89667
  20
31.74293
  30
0.0
   0
VERTEX
   5
475
100
AcDbEntity
   8
TITLEBLOCK
   6
CONTINUOUS
  62
      9
100
AcDbVertex
100
AcDb2dVertex
  10
-17.83417
  20
31.85118
  30
0.0
   0
SEQEND
   5
476
100
AcDbEntity
   8
TITLEBLOCK
   6
CONTINUOUS
   0
POLYLINE
   5
477
100
AcDbEntity
   8
TITLEBLOCK
   6
CONTINUOUS
  62
      9
100
AcDb2dPolyline
  66
      1
  10
0.0
  20
0.0
  30
0.0
  70
      1
  75
      5
   0
VERTEX
   5
478
100
AcDbEntity
   8
TITLEBLOCK
   6
CONTINUOUS
  62
      9
100
AcDbVertex
100
AcDb2dVertex
  10
-17.89667
  20
31.74293
  30
0.0
   0
VERTEX
   5
479
100
AcDbEntity
   8
TITLEBLOCK
   6
CONTINUOUS
  62
      9
100
AcDbVertex
100
AcDb2dVertex
  10
-17.95917
  20
31.85118
  30
0.0
   0
VERTEX
   5
47A
100
AcDbEntity
   8
TITLEBLOCK
   6
CONTINUOUS
  62
      9
100
AcDbVertex
100
AcDb2dVertex
  10
-17.89667
  20
30.85118
  30
0.0
   0
VERTEX
   5
47B
100
AcDbEntity
   8
TITLEBLOCK
   6
CONTINUOUS
  62
      9
100
AcDbVertex
100
AcDb2dVertex
  10
-17.83417
  20
30.95943
  30
0.0
   0
SEQEND
   5
47C
100
AcDbEntity
   8
TITLEBLOCK
   6
CONTINUOUS
   0
POLYLINE
   5
47D
100
AcDbEntity
   8
TITLEBLOCK
   6
CONTINUOUS
  62
      9
100
AcDb2dPolyline
  66
      1
  10
0.0
  20
0.0
  30
0.0
  70
      1
  75
      5
   0
VERTEX
   5
47E
100
AcDbEntity
   8
TITLEBLOCK
   6
CONTINUOUS
  62
      9
100
AcDbVertex
100
AcDb2dVertex
  10
-17.89667
  20
30.85118
  30
0.0
   0
VERTEX
   5
47F
100
AcDbEntity
   8
TITLEBLOCK
   6
CONTINUOUS
  62
      9
100
AcDbVertex
100
AcDb2dVertex
  10
-17.95917
  20
30.95943
  30
0.0
   0
VERTEX
   5
480
100
AcDbEntity
   8
TITLEBLOCK
   6
CONTINUOUS
  62
      9
100
AcDbVertex
100
AcDb2dVertex
  10
-18.02167
  20
31.74292
  30
0.0
   0
VERTEX
   5
481
100
AcDbEntity
   8
TITLEBLOCK
   6
CONTINUOUS
  62
      9
100
AcDbVertex
100
AcDb2dVertex
  10
-17.95917
  20
31.85117
  30
0.0
   0
SEQEND
   5
482
100
AcDbEntity
   8
TITLEBLOCK
   6
CONTINUOUS
   0
POLYLINE
   5
483
100
AcDbEntity
   8
TITLEBLOCK
   6
CONTINUOUS
  62
      9
100
AcDb2dPolyline
  66
      1
  10
0.0
  20
0.0
  30
0.0
  70
      1
  75
      5
   0
VERTEX
   5
484
100
AcDbEntity
   8
TITLEBLOCK
   6
CONTINUOUS
  62
      9
100
AcDbVertex
100
AcDb2dVertex
  10
-18.02167
  20
31.74292
  30
0.0
   0
VERTEX
   5
485
100
AcDbEntity
   8
TITLEBLOCK
   6
CONTINUOUS
  62
      9
100
AcDbVertex
100
AcDb2dVertex
  10
-18.08417
  20
31.85117
  30
0.0
   0
VERTEX
   5
486
100
AcDbEntity
   8
TITLEBLOCK
   6
CONTINUOUS
  62
      9
100
AcDbVertex
100
AcDb2dVertex
  10
-18.02167
  20
30.85117
  30
0.0
   0
VERTEX
   5
487
100
AcDbEntity
   8
TITLEBLOCK
   6
CONTINUOUS
  62
      9
100
AcDbVertex
100
AcDb2dVertex
  10
-17.95917
  20
30.95942
  30
0.0
   0
SEQEND
   5
488
100
AcDbEntity
   8
TITLEBLOCK
   6
CONTINUOUS
   0
POLYLINE
   5
489
100
AcDbEntity
   8
TITLEBLOCK
   6
CONTINUOUS
  62
      9
100
AcDb2dPolyline
  66
      1
  10
0.0
  20
0.0
  30
0.0
  70
      1
  75
      5
   0
VERTEX
   5
48A
100
AcDbEntity
   8
TITLEBLOCK
   6
CONTINUOUS
  62
      9
100
AcDbVertex
100
AcDb2dVertex
  10
-18.02167
  20
30.85117
  30
0.0
   0
VERTEX
   5
48B
100
AcDbEntity
   8
TITLEBLOCK
   6
CONTINUOUS
  62
      9
100
AcDbVertex
100
AcDb2dVertex
  10
-18.08417
  20
30.95942
  30
0.0
   0
VERTEX
   5
48C
100
AcDbEntity
   8
TITLEBLOCK
   6
CONTINUOUS
  62
      9
100
AcDbVertex
100
AcDb2dVertex
  10
-18.14667
  20
31.74291
  30
0.0
   0
VERTEX
   5
48D
100
AcDbEntity
   8
TITLEBLOCK
   6
CONTINUOUS
  62
      9
100
AcDbVertex
100
AcDb2dVertex
  10
-18.08417
  20
31.85116
  30
0.0
   0
SEQEND
   5
48E
100
AcDbEntity
   8
TITLEBLOCK
   6
CONTINUOUS
   0
POLYLINE
   5
48F
100
AcDbEntity
   8
TITLEBLOCK
   6
CONTINUOUS
  62
      9
100
AcDb2dPolyline
  66
      1
  10
0.0
  20
0.0
  30
0.0
  70
      1
  75
      5
   0
VERTEX
   5
490
100
AcDbEntity
   8
TITLEBLOCK
   6
CONTINUOUS
  62
      9
100
AcDbVertex
100
AcDb2dVertex
  10
-18.14667
  20
31.74291
  30
0.0
   0
VERTEX
   5
491
100
AcDbEntity
   8
TITLEBLOCK
   6
CONTINUOUS
  62
      9
100
AcDbVertex
100
AcDb2dVertex
  10
-18.20917
  20
31.85116
  30
0.0
   0
VERTEX
   5
492
100
AcDbEntity
   8
TITLEBLOCK
   6
CONTINUOUS
  62
      9
100
AcDbVertex
100
AcDb2dVertex
  10
-18.14667
  20
30.85116
  30
0.0
   0
VERTEX
   5
493
100
AcDbEntity
   8
TITLEBLOCK
   6
CONTINUOUS
  62
      9
100
AcDbVertex
100
AcDb2dVertex
  10
-18.08417
  20
30.95941
  30
0.0
   0
SEQEND
   5
494
100
AcDbEntity
   8
TITLEBLOCK
   6
CONTINUOUS
   0
POLYLINE
   5
495
100
AcDbEntity
   8
TITLEBLOCK
   6
CONTINUOUS
  62
      9
100
AcDb2dPolyline
  66
      1
  10
0.0
  20
0.0
  30
0.0
  70
      1
  75
      5
   0
VERTEX
   5
496
100
AcDbEntity
   8
TITLEBLOCK
   6
CONTINUOUS
  62
      9
100
AcDbVertex
100
AcDb2dVertex
  10
-18.14667
  20
30.85116
  30
0.0
   0
VERTEX
   5
497
100
AcDbEntity
   8
TITLEBLOCK
   6
CONTINUOUS
  62
      9
100
AcDbVertex
100
AcDb2dVertex
  10
-18.20917
  20
30.95941
  30
0.0
   0
VERTEX
   5
498
100
AcDbEntity
   8
TITLEBLOCK
   6
CONTINUOUS
  62
      9
100
AcDbVertex
100
AcDb2dVertex
  10
-18.27167
  20
31.7429
  30
0.0
   0
VERTEX
   5
499
100
AcDbEntity
   8
TITLEBLOCK
   6
CONTINUOUS
  62
      9
100
AcDbVertex
100
AcDb2dVertex
  10
-18.20917
  20
31.85115
  30
0.0
   0
SEQEND
   5
49A
100
AcDbEntity
   8
TITLEBLOCK
   6
CONTINUOUS
   0
POLYLINE
   5
49B
100
AcDbEntity
   8
TITLEBLOCK
   6
CONTINUOUS
  62
      9
100
AcDb2dPolyline
  66
      1
  10
0.0
  20
0.0
  30
0.0
  70
      1
  75
      5
   0
VERTEX
   5
49C
100
AcDbEntity
   8
TITLEBLOCK
   6
CONTINUOUS
  62
      9
100
AcDbVertex
100
AcDb2dVertex
  10
-18.27167
  20
31.7429
  30
0.0
   0
VERTEX
   5
49D
100
AcDbEntity
   8
TITLEBLOCK
   6
CONTINUOUS
  62
      9
100
AcDbVertex
100
AcDb2dVertex
  10
-18.33417
  20
31.85115
  30
0.0
   0
VERTEX
   5
49E
100
AcDbEntity
   8
TITLEBLOCK
   6
CONTINUOUS
  62
      9
100
AcDbVertex
100
AcDb2dVertex
  10
-18.27167
  20
30.85115
  30
0.0
   0
VERTEX
   5
49F
100
AcDbEntity
   8
TITLEBLOCK
   6
CONTINUOUS
  62
      9
100
AcDbVertex
100
AcDb2dVertex
  10
-18.20917
  20
30.9594
  30
0.0
   0
SEQEND
   5
4A0
100
AcDbEntity
   8
TITLEBLOCK
   6
CONTINUOUS
   0
POLYLINE
   5
4A1
100
AcDbEntity
   8
TITLEBLOCK
   6
CONTINUOUS
  62
      9
100
AcDb2dPolyline
  66
      1
  10
0.0
  20
0.0
  30
0.0
  70
      1
  75
      5
   0
VERTEX
   5
4A2
100
AcDbEntity
   8
TITLEBLOCK
   6
CONTINUOUS
  62
      9
100
AcDbVertex
100
AcDb2dVertex
  10
-18.27167
  20
30.85115
  30
0.0
   0
VERTEX
   5
4A3
100
AcDbEntity
   8
TITLEBLOCK
   6
CONTINUOUS
  62
      9
100
AcDbVertex
100
AcDb2dVertex
  10
-18.33417
  20
30.9594
  30
0.0
   0
VERTEX
   5
4A4
100
AcDbEntity
   8
TITLEBLOCK
   6
CONTINUOUS
  62
      9
100
AcDbVertex
100
AcDb2dVertex
  10
-18.39667
  20
31.74289
  30
0.0
   0
VERTEX
   5
4A5
100
AcDbEntity
   8
TITLEBLOCK
   6
CONTINUOUS
  62
      9
100
AcDbVertex
100
AcDb2dVertex
  10
-18.33417
  20
31.85114
  30
0.0
   0
SEQEND
   5
4A6
100
AcDbEntity
   8
TITLEBLOCK
   6
CONTINUOUS
   0
POLYLINE
   5
4A7
100
AcDbEntity
   8
TITLEBLOCK
   6
CONTINUOUS
  62
      9
100
AcDb2dPolyline
  66
      1
  10
0.0
  20
0.0
  30
0.0
  70
      1
  75
      5
   0
VERTEX
   5
4A8
100
AcDbEntity
   8
TITLEBLOCK
   6
CONTINUOUS
  62
      9
100
AcDbVertex
100
AcDb2dVertex
  10
-18.39667
  20
31.74289
  30
0.0
   0
VERTEX
   5
4A9
100
AcDbEntity
   8
TITLEBLOCK
   6
CONTINUOUS
  62
      9
100
AcDbVertex
100
AcDb2dVertex
  10
-18.45917
  20
31.85114
  30
0.0
   0
VERTEX
   5
4AA
100
AcDbEntity
   8
TITLEBLOCK
   6
CONTINUOUS
  62
      9
100
AcDbVertex
100
AcDb2dVertex
  10
-18.39667
  20
30.85114
  30
0.0
   0
VERTEX
   5
4AB
100
AcDbEntity
   8
TITLEBLOCK
   6
CONTINUOUS
  62
      9
100
AcDbVertex
100
AcDb2dVertex
  10
-18.33417
  20
30.95939
  30
0.0
   0
SEQEND
   5
4AC
100
AcDbEntity
   8
TITLEBLOCK
   6
CONTINUOUS
   0
POLYLINE
   5
4AD
100
AcDbEntity
   8
TITLEBLOCK
   6
CONTINUOUS
  62
      9
100
AcDb2dPolyline
  66
      1
  10
0.0
  20
0.0
  30
0.0
  70
      1
  75
      5
   0
VERTEX
   5
4AE
100
AcDbEntity
   8
TITLEBLOCK
   6
CONTINUOUS
  62
      9
100
AcDbVertex
100
AcDb2dVertex
  10
-18.39667
  20
30.85114
  30
0.0
   0
VERTEX
   5
4AF
100
AcDbEntity
   8
TITLEBLOCK
   6
CONTINUOUS
  62
      9
100
AcDbVertex
100
AcDb2dVertex
  10
-18.45917
  20
30.95939
  30
0.0
   0
VERTEX
   5
4B0
100
AcDbEntity
   8
TITLEBLOCK
   6
CONTINUOUS
  62
      9
100
AcDbVertex
100
AcDb2dVertex
  10
-18.52167
  20
31.74288
  30
0.0
   0
VERTEX
   5
4B1
100
AcDbEntity
   8
TITLEBLOCK
   6
CONTINUOUS
  62
      9
100
AcDbVertex
100
AcDb2dVertex
  10
-18.45917
  20
31.85113
  30
0.0
   0
SEQEND
   5
4B2
100
AcDbEntity
   8
TITLEBLOCK
   6
CONTINUOUS
   0
POLYLINE
   5
4B3
100
AcDbEntity
   8
TITLEBLOCK
   6
CONTINUOUS
  62
      9
100
AcDb2dPolyline
  66
      1
  10
0.0
  20
0.0
  30
0.0
  70
      1
  75
      5
   0
VERTEX
   5
4B4
100
AcDbEntity
   8
TITLEBLOCK
   6
CONTINUOUS
  62
      9
100
AcDbVertex
100
AcDb2dVertex
  10
-18.52167
  20
31.74288
  30
0.0
   0
VERTEX
   5
4B5
100
AcDbEntity
   8
TITLEBLOCK
   6
CONTINUOUS
  62
      9
100
AcDbVertex
100
AcDb2dVertex
  10
-18.58417
  20
31.85113
  30
0.0
   0
VERTEX
   5
4B6
100
AcDbEntity
   8
TITLEBLOCK
   6
CONTINUOUS
  62
      9
100
AcDbVertex
100
AcDb2dVertex
  10
-18.52167
  20
30.85113
  30
0.0
   0
VERTEX
   5
4B7
100
AcDbEntity
   8
TITLEBLOCK
   6
CONTINUOUS
  62
      9
100
AcDbVertex
100
AcDb2dVertex
  10
-18.45917
  20
30.95938
  30
0.0
   0
SEQEND
   5
4B8
100
AcDbEntity
   8
TITLEBLOCK
   6
CONTINUOUS
   0
POLYLINE
   5
4B9
100
AcDbEntity
   8
TITLEBLOCK
   6
CONTINUOUS
  62
      9
100
AcDb2dPolyline
  66
      1
  10
0.0
  20
0.0
  30
0.0
  70
      1
  75
      5
   0
VERTEX
   5
4BA
100
AcDbEntity
   8
TITLEBLOCK
   6
CONTINUOUS
  62
      9
100
AcDbVertex
100
AcDb2dVertex
  10
-18.52167
  20
30.85113
  30
0.0
   0
VERTEX
   5
4BB
100
AcDbEntity
   8
TITLEBLOCK
   6
CONTINUOUS
  62
      9
100
AcDbVertex
100
AcDb2dVertex
  10
-18.58417
  20
30.95938
  30
0.0
   0
VERTEX
   5
4BC
100
AcDbEntity
   8
TITLEBLOCK
   6
CONTINUOUS
  62
      9
100
AcDbVertex
100
AcDb2dVertex
  10
-18.64667
  20
31.74287
  30
0.0
   0
VERTEX
   5
4BD
100
AcDbEntity
   8
TITLEBLOCK
   6
CONTINUOUS
  62
      9
100
AcDbVertex
100
AcDb2dVertex
  10
-18.58417
  20
31.85112
  30
0.0
   0
SEQEND
   5
4BE
100
AcDbEntity
   8
TITLEBLOCK
   6
CONTINUOUS
   0
POLYLINE
   5
4BF
100
AcDbEntity
   8
TITLEBLOCK
   6
CONTINUOUS
  62
      9
100
AcDb2dPolyline
  66
      1
  10
0.0
  20
0.0
  30
0.0
  70
      1
  75
      5
   0
VERTEX
   5
4C0
100
AcDbEntity
   8
TITLEBLOCK
   6
CONTINUOUS
  62
      9
100
AcDbVertex
100
AcDb2dVertex
  10
-18.64667
  20
31.74287
  30
0.0
   0
VERTEX
   5
4C1
100
AcDbEntity
   8
TITLEBLOCK
   6
CONTINUOUS
  62
      9
100
AcDbVertex
100
AcDb2dVertex
  10
-18.70917
  20
31.85112
  30
0.0
   0
VERTEX
   5
4C2
100
AcDbEntity
   8
TITLEBLOCK
   6
CONTINUOUS
  62
      9
100
AcDbVertex
100
AcDb2dVertex
  10
-18.64667
  20
30.85112
  30
0.0
   0
VERTEX
   5
4C3
100
AcDbEntity
   8
TITLEBLOCK
   6
CONTINUOUS
  62
      9
100
AcDbVertex
100
AcDb2dVertex
  10
-18.58417
  20
30.95937
  30
0.0
   0
SEQEND
   5
4C4
100
AcDbEntity
   8
TITLEBLOCK
   6
CONTINUOUS
   0
POLYLINE
   5
4C5
100
AcDbEntity
   8
TITLEBLOCK
   6
CONTINUOUS
  62
      9
100
AcDb2dPolyline
  66
      1
  10
0.0
  20
0.0
  30
0.0
  70
      1
  75
      5
   0
VERTEX
   5
4C6
100
AcDbEntity
   8
TITLEBLOCK
   6
CONTINUOUS
  62
      9
100
AcDbVertex
100
AcDb2dVertex
  10
-18.64667
  20
30.85112
  30
0.0
   0
VERTEX
   5
4C7
100
AcDbEntity
   8
TITLEBLOCK
   6
CONTINUOUS
  62
      9
100
AcDbVertex
100
AcDb2dVertex
  10
-18.70917
  20
30.95937
  30
0.0
   0
VERTEX
   5
4C8
100
AcDbEntity
   8
TITLEBLOCK
   6
CONTINUOUS
  62
      9
100
AcDbVertex
100
AcDb2dVertex
  10
-18.77167
  20
31.74286
  30
0.0
   0
VERTEX
   5
4C9
100
AcDbEntity
   8
TITLEBLOCK
   6
CONTINUOUS
  62
      9
100
AcDbVertex
100
AcDb2dVertex
  10
-18.70917
  20
31.85111
  30
0.0
   0
SEQEND
   5
4CA
100
AcDbEntity
   8
TITLEBLOCK
   6
CONTINUOUS
   0
POLYLINE
   5
4CB
100
AcDbEntity
   8
TITLEBLOCK
   6
CONTINUOUS
  62
      9
100
AcDb2dPolyline
  66
      1
  10
0.0
  20
0.0
  30
0.0
  70
      1
  75
      5
   0
VERTEX
   5
4CC
100
AcDbEntity
   8
TITLEBLOCK
   6
CONTINUOUS
  62
      9
100
AcDbVertex
100
AcDb2dVertex
  10
-18.77167
  20
31.74286
  30
0.0
   0
VERTEX
   5
4CD
100
AcDbEntity
   8
TITLEBLOCK
   6
CONTINUOUS
  62
      9
100
AcDbVertex
100
AcDb2dVertex
  10
-18.83417
  20
31.85111
  30
0.0
   0
VERTEX
   5
4CE
100
AcDbEntity
   8
TITLEBLOCK
   6
CONTINUOUS
  62
      9
100
AcDbVertex
100
AcDb2dVertex
  10
-18.77167
  20
30.85111
  30
0.0
   0
VERTEX
   5
4CF
100
AcDbEntity
   8
TITLEBLOCK
   6
CONTINUOUS
  62
      9
100
AcDbVertex
100
AcDb2dVertex
  10
-18.70917
  20
30.95936
  30
0.0
   0
SEQEND
   5
4D0
100
AcDbEntity
   8
TITLEBLOCK
   6
CONTINUOUS
   0
POLYLINE
   5
4D1
100
AcDbEntity
   8
TITLEBLOCK
   6
CONTINUOUS
  62
      9
100
AcDb2dPolyline
  66
      1
  10
0.0
  20
0.0
  30
0.0
  70
      1
  75
      5
   0
VERTEX
   5
4D2
100
AcDbEntity
   8
TITLEBLOCK
   6
CONTINUOUS
  62
      9
100
AcDbVertex
100
AcDb2dVertex
  10
-18.77167
  20
30.85111
  30
0.0
   0
VERTEX
   5
4D3
100
AcDbEntity
   8
TITLEBLOCK
   6
CONTINUOUS
  62
      9
100
AcDbVertex
100
AcDb2dVertex
  10
-18.83417
  20
30.95936
  30
0.0
   0
VERTEX
   5
4D4
100
AcDbEntity
   8
TITLEBLOCK
   6
CONTINUOUS
  62
      9
100
AcDbVertex
100
AcDb2dVertex
  10
-18.89667
  20
31.74285
  30
0.0
   0
VERTEX
   5
4D5
100
AcDbEntity
   8
TITLEBLOCK
   6
CONTINUOUS
  62
      9
100
AcDbVertex
100
AcDb2dVertex
  10
-18.83417
  20
31.8511
  30
0.0
   0
SEQEND
   5
4D6
100
AcDbEntity
   8
TITLEBLOCK
   6
CONTINUOUS
   0
POLYLINE
   5
4D7
100
AcDbEntity
   8
TITLEBLOCK
   6
CONTINUOUS
  62
      9
100
AcDb2dPolyline
  66
      1
  10
0.0
  20
0.0
  30
0.0
  70
      1
  75
      5
   0
VERTEX
   5
4D8
100
AcDbEntity
   8
TITLEBLOCK
   6
CONTINUOUS
  62
      9
100
AcDbVertex
100
AcDb2dVertex
  10
-18.89667
  20
31.74285
  30
0.0
   0
VERTEX
   5
4D9
100
AcDbEntity
   8
TITLEBLOCK
   6
CONTINUOUS
  62
      9
100
AcDbVertex
100
AcDb2dVertex
  10
-18.95917
  20
31.8511
  30
0.0
   0
VERTEX
   5
4DA
100
AcDbEntity
   8
TITLEBLOCK
   6
CONTINUOUS
  62
      9
100
AcDbVertex
100
AcDb2dVertex
  10
-18.89667
  20
30.8511
  30
0.0
   0
VERTEX
   5
4DB
100
AcDbEntity
   8
TITLEBLOCK
   6
CONTINUOUS
  62
      9
100
AcDbVertex
100
AcDb2dVertex
  10
-18.83417
  20
30.95935
  30
0.0
   0
SEQEND
   5
4DC
100
AcDbEntity
   8
TITLEBLOCK
   6
CONTINUOUS
   0
POLYLINE
   5
4DD
100
AcDbEntity
   8
TITLEBLOCK
   6
CONTINUOUS
  62
      9
100
AcDb2dPolyline
  66
      1
  10
0.0
  20
0.0
  30
0.0
  70
      1
  75
      5
   0
VERTEX
   5
4DE
100
AcDbEntity
   8
TITLEBLOCK
   6
CONTINUOUS
  62
      9
100
AcDbVertex
100
AcDb2dVertex
  10
-18.89667
  20
30.8511
  30
0.0
   0
VERTEX
   5
4DF
100
AcDbEntity
   8
TITLEBLOCK
   6
CONTINUOUS
  62
      9
100
AcDbVertex
100
AcDb2dVertex
  10
-18.95917
  20
30.95935
  30
0.0
   0
VERTEX
   5
4E0
100
AcDbEntity
   8
TITLEBLOCK
   6
CONTINUOUS
  62
      9
100
AcDbVertex
100
AcDb2dVertex
  10
-19.02167
  20
31.74284
  30
0.0
   0
VERTEX
   5
4E1
100
AcDbEntity
   8
TITLEBLOCK
   6
CONTINUOUS
  62
      9
100
AcDbVertex
100
AcDb2dVertex
  10
-18.95917
  20
31.85109
  30
0.0
   0
SEQEND
   5
4E2
100
AcDbEntity
   8
TITLEBLOCK
   6
CONTINUOUS
   0
POLYLINE
   5
4E3
100
AcDbEntity
   8
TITLEBLOCK
   6
CONTINUOUS
  62
      9
100
AcDb2dPolyline
  66
      1
  10
0.0
  20
0.0
  30
0.0
  70
      1
  75
      5
   0
VERTEX
   5
4E4
100
AcDbEntity
   8
TITLEBLOCK
   6
CONTINUOUS
  62
      9
100
AcDbVertex
100
AcDb2dVertex
  10
-19.02167
  20
31.74284
  30
0.0
   0
VERTEX
   5
4E5
100
AcDbEntity
   8
TITLEBLOCK
   6
CONTINUOUS
  62
      9
100
AcDbVertex
100
AcDb2dVertex
  10
-19.08417
  20
31.85109
  30
0.0
   0
VERTEX
   5
4E6
100
AcDbEntity
   8
TITLEBLOCK
   6
CONTINUOUS
  62
      9
100
AcDbVertex
100
AcDb2dVertex
  10
-19.02167
  20
30.85109
  30
0.0
   0
VERTEX
   5
4E7
100
AcDbEntity
   8
TITLEBLOCK
   6
CONTINUOUS
  62
      9
100
AcDbVertex
100
AcDb2dVertex
  10
-18.95917
  20
30.95934
  30
0.0
   0
SEQEND
   5
4E8
100
AcDbEntity
   8
TITLEBLOCK
   6
CONTINUOUS
   0
POLYLINE
   5
4E9
100
AcDbEntity
   8
TITLEBLOCK
   6
CONTINUOUS
  62
      9
100
AcDb2dPolyline
  66
      1
  10
0.0
  20
0.0
  30
0.0
  70
      1
  75
      5
   0
VERTEX
   5
4EA
100
AcDbEntity
   8
TITLEBLOCK
   6
CONTINUOUS
  62
      9
100
AcDbVertex
100
AcDb2dVertex
  10
-19.02167
  20
30.85109
  30
0.0
   0
VERTEX
   5
4EB
100
AcDbEntity
   8
TITLEBLOCK
   6
CONTINUOUS
  62
      9
100
AcDbVertex
100
AcDb2dVertex
  10
-19.08417
  20
30.95934
  30
0.0
   0
VERTEX
   5
4EC
100
AcDbEntity
   8
TITLEBLOCK
   6
CONTINUOUS
  62
      9
100
AcDbVertex
100
AcDb2dVertex
  10
-19.14667
  20
31.74283
  30
0.0
   0
VERTEX
   5
4ED
100
AcDbEntity
   8
TITLEBLOCK
   6
CONTINUOUS
  62
      9
100
AcDbVertex
100
AcDb2dVertex
  10
-19.08417
  20
31.85108
  30
0.0
   0
SEQEND
   5
4EE
100
AcDbEntity
   8
TITLEBLOCK
   6
CONTINUOUS
   0
POLYLINE
   5
4EF
100
AcDbEntity
   8
TITLEBLOCK
   6
CONTINUOUS
  62
      9
100
AcDb2dPolyline
  66
      1
  10
0.0
  20
0.0
  30
0.0
  70
      1
  75
      5
   0
VERTEX
   5
4F0
100
AcDbEntity
   8
TITLEBLOCK
   6
CONTINUOUS
  62
      9
100
AcDbVertex
100
AcDb2dVertex
  10
-19.14667
  20
31.74283
  30
0.0
   0
VERTEX
   5
4F1
100
AcDbEntity
   8
TITLEBLOCK
   6
CONTINUOUS
  62
      9
100
AcDbVertex
100
AcDb2dVertex
  10
-19.20917
  20
31.85108
  30
0.0
   0
VERTEX
   5
4F2
100
AcDbEntity
   8
TITLEBLOCK
   6
CONTINUOUS
  62
      9
100
AcDbVertex
100
AcDb2dVertex
  10
-19.14667
  20
30.85108
  30
0.0
   0
VERTEX
   5
4F3
100
AcDbEntity
   8
TITLEBLOCK
   6
CONTINUOUS
  62
      9
100
AcDbVertex
100
AcDb2dVertex
  10
-19.08417
  20
30.95933
  30
0.0
   0
SEQEND
   5
4F4
100
AcDbEntity
   8
TITLEBLOCK
   6
CONTINUOUS
   0
POLYLINE
   5
4F5
100
AcDbEntity
   8
TITLEBLOCK
   6
CONTINUOUS
  62
      9
100
AcDb2dPolyline
  66
      1
  10
0.0
  20
0.0
  30
0.0
  70
      1
  75
      5
   0
VERTEX
   5
4F6
100
AcDbEntity
   8
TITLEBLOCK
   6
CONTINUOUS
  62
      9
100
AcDbVertex
100
AcDb2dVertex
  10
-19.14667
  20
30.85108
  30
0.0
   0
VERTEX
   5
4F7
100
AcDbEntity
   8
TITLEBLOCK
   6
CONTINUOUS
  62
      9
100
AcDbVertex
100
AcDb2dVertex
  10
-19.20917
  20
30.95933
  30
0.0
   0
VERTEX
   5
4F8
100
AcDbEntity
   8
TITLEBLOCK
   6
CONTINUOUS
  62
      9
100
AcDbVertex
100
AcDb2dVertex
  10
-19.27167
  20
31.74282
  30
0.0
   0
VERTEX
   5
4F9
100
AcDbEntity
   8
TITLEBLOCK
   6
CONTINUOUS
  62
      9
100
AcDbVertex
100
AcDb2dVertex
  10
-19.20917
  20
31.85107
  30
0.0
   0
SEQEND
   5
4FA
100
AcDbEntity
   8
TITLEBLOCK
   6
CONTINUOUS
   0
POLYLINE
   5
4FB
100
AcDbEntity
   8
TITLEBLOCK
   6
CONTINUOUS
  62
      9
100
AcDb2dPolyline
  66
      1
  10
0.0
  20
0.0
  30
0.0
  70
      1
  75
      5
   0
VERTEX
   5
4FC
100
AcDbEntity
   8
TITLEBLOCK
   6
CONTINUOUS
  62
      9
100
AcDbVertex
100
AcDb2dVertex
  10
-19.27167
  20
31.74282
  30
0.0
   0
VERTEX
   5
4FD
100
AcDbEntity
   8
TITLEBLOCK
   6
CONTINUOUS
  62
      9
100
AcDbVertex
100
AcDb2dVertex
  10
-19.33417
  20
31.85107
  30
0.0
   0
VERTEX
   5
4FE
100
AcDbEntity
   8
TITLEBLOCK
   6
CONTINUOUS
  62
      9
100
AcDbVertex
100
AcDb2dVertex
  10
-19.27167
  20
30.85107
  30
0.0
   0
VERTEX
   5
4FF
100
AcDbEntity
   8
TITLEBLOCK
   6
CONTINUOUS
  62
      9
100
AcDbVertex
100
AcDb2dVertex
  10
-19.20917
  20
30.95932
  30
0.0
   0
SEQEND
   5
500
100
AcDbEntity
   8
TITLEBLOCK
   6
CONTINUOUS
   0
POLYLINE
   5
501
100
AcDbEntity
   8
TITLEBLOCK
   6
CONTINUOUS
  62
      9
100
AcDb2dPolyline
  66
      1
  10
0.0
  20
0.0
  30
0.0
  70
      1
  75
      5
   0
VERTEX
   5
502
100
AcDbEntity
   8
TITLEBLOCK
   6
CONTINUOUS
  62
      9
100
AcDbVertex
100
AcDb2dVertex
  10
-19.27167
  20
30.85107
  30
0.0
   0
VERTEX
   5
503
100
AcDbEntity
   8
TITLEBLOCK
   6
CONTINUOUS
  62
      9
100
AcDbVertex
100
AcDb2dVertex
  10
-19.33417
  20
30.95932
  30
0.0
   0
VERTEX
   5
504
100
AcDbEntity
   8
TITLEBLOCK
   6
CONTINUOUS
  62
      9
100
AcDbVertex
100
AcDb2dVertex
  10
-19.39667
  20
31.74281
  30
0.0
   0
VERTEX
   5
505
100
AcDbEntity
   8
TITLEBLOCK
   6
CONTINUOUS
  62
      9
100
AcDbVertex
100
AcDb2dVertex
  10
-19.33417
  20
31.85106
  30
0.0
   0
SEQEND
   5
506
100
AcDbEntity
   8
TITLEBLOCK
   6
CONTINUOUS
   0
POLYLINE
   5
507
100
AcDbEntity
   8
TITLEBLOCK
   6
CONTINUOUS
  62
      9
100
AcDb2dPolyline
  66
      1
  10
0.0
  20
0.0
  30
0.0
  70
      1
  75
      5
   0
VERTEX
   5
508
100
AcDbEntity
   8
TITLEBLOCK
   6
CONTINUOUS
  62
      9
100
AcDbVertex
100
AcDb2dVertex
  10
-19.39667
  20
31.74281
  30
0.0
   0
VERTEX
   5
509
100
AcDbEntity
   8
TITLEBLOCK
   6
CONTINUOUS
  62
      9
100
AcDbVertex
100
AcDb2dVertex
  10
-19.45917
  20
31.85106
  30
0.0
   0
VERTEX
   5
50A
100
AcDbEntity
   8
TITLEBLOCK
   6
CONTINUOUS
  62
      9
100
AcDbVertex
100
AcDb2dVertex
  10
-19.39667
  20
30.85106
  30
0.0
   0
VERTEX
   5
50B
100
AcDbEntity
   8
TITLEBLOCK
   6
CONTINUOUS
  62
      9
100
AcDbVertex
100
AcDb2dVertex
  10
-19.33417
  20
30.95931
  30
0.0
   0
SEQEND
   5
50C
100
AcDbEntity
   8
TITLEBLOCK
   6
CONTINUOUS
   0
POLYLINE
   5
50D
100
AcDbEntity
   8
TITLEBLOCK
   6
CONTINUOUS
  62
      9
100
AcDb2dPolyline
  66
      1
  10
0.0
  20
0.0
  30
0.0
  70
      1
  75
      5
   0
VERTEX
   5
50E
100
AcDbEntity
   8
TITLEBLOCK
   6
CONTINUOUS
  62
      9
100
AcDbVertex
100
AcDb2dVertex
  10
-19.39667
  20
30.85106
  30
0.0
   0
VERTEX
   5
50F
100
AcDbEntity
   8
TITLEBLOCK
   6
CONTINUOUS
  62
      9
100
AcDbVertex
100
AcDb2dVertex
  10
-19.45917
  20
30.95931
  30
0.0
   0
VERTEX
   5
510
100
AcDbEntity
   8
TITLEBLOCK
   6
CONTINUOUS
  62
      9
100
AcDbVertex
100
AcDb2dVertex
  10
-19.52167
  20
31.7428
  30
0.0
   0
VERTEX
   5
511
100
AcDbEntity
   8
TITLEBLOCK
   6
CONTINUOUS
  62
      9
100
AcDbVertex
100
AcDb2dVertex
  10
-19.45917
  20
31.85105
  30
0.0
   0
SEQEND
   5
512
100
AcDbEntity
   8
TITLEBLOCK
   6
CONTINUOUS
   0
POLYLINE
   5
513
100
AcDbEntity
   8
TITLEBLOCK
   6
CONTINUOUS
  62
      9
100
AcDb2dPolyline
  66
      1
  10
0.0
  20
0.0
  30
0.0
  70
      1
  75
      5
   0
VERTEX
   5
514
100
AcDbEntity
   8
TITLEBLOCK
   6
CONTINUOUS
  62
      9
100
AcDbVertex
100
AcDb2dVertex
  10
-19.52167
  20
31.7428
  30
0.0
   0
VERTEX
   5
515
100
AcDbEntity
   8
TITLEBLOCK
   6
CONTINUOUS
  62
      9
100
AcDbVertex
100
AcDb2dVertex
  10
-19.58417
  20
31.85105
  30
0.0
   0
VERTEX
   5
516
100
AcDbEntity
   8
TITLEBLOCK
   6
CONTINUOUS
  62
      9
100
AcDbVertex
100
AcDb2dVertex
  10
-19.52167
  20
30.85105
  30
0.0
   0
VERTEX
   5
517
100
AcDbEntity
   8
TITLEBLOCK
   6
CONTINUOUS
  62
      9
100
AcDbVertex
100
AcDb2dVertex
  10
-19.45917
  20
30.9593
  30
0.0
   0
SEQEND
   5
518
100
AcDbEntity
   8
TITLEBLOCK
   6
CONTINUOUS
   0
POLYLINE
   5
519
100
AcDbEntity
   8
TITLEBLOCK
   6
CONTINUOUS
  62
      9
100
AcDb2dPolyline
  66
      1
  10
0.0
  20
0.0
  30
0.0
  70
      1
  75
      5
   0
VERTEX
   5
51A
100
AcDbEntity
   8
TITLEBLOCK
   6
CONTINUOUS
  62
      9
100
AcDbVertex
100
AcDb2dVertex
  10
-19.52167
  20
30.85105
  30
0.0
   0
VERTEX
   5
51B
100
AcDbEntity
   8
TITLEBLOCK
   6
CONTINUOUS
  62
      9
100
AcDbVertex
100
AcDb2dVertex
  10
-19.58417
  20
30.9593
  30
0.0
   0
VERTEX
   5
51C
100
AcDbEntity
   8
TITLEBLOCK
   6
CONTINUOUS
  62
      9
100
AcDbVertex
100
AcDb2dVertex
  10
-19.64667
  20
31.74279
  30
0.0
   0
VERTEX
   5
51D
100
AcDbEntity
   8
TITLEBLOCK
   6
CONTINUOUS
  62
      9
100
AcDbVertex
100
AcDb2dVertex
  10
-19.58417
  20
31.85104
  30
0.0
   0
SEQEND
   5
51E
100
AcDbEntity
   8
TITLEBLOCK
   6
CONTINUOUS
   0
POLYLINE
   5
51F
100
AcDbEntity
   8
TITLEBLOCK
   6
CONTINUOUS
  62
      9
100
AcDb2dPolyline
  66
      1
  10
0.0
  20
0.0
  30
0.0
  70
      1
  75
      5
   0
VERTEX
   5
520
100
AcDbEntity
   8
TITLEBLOCK
   6
CONTINUOUS
  62
      9
100
AcDbVertex
100
AcDb2dVertex
  10
-19.64667
  20
31.74279
  30
0.0
   0
VERTEX
   5
521
100
AcDbEntity
   8
TITLEBLOCK
   6
CONTINUOUS
  62
      9
100
AcDbVertex
100
AcDb2dVertex
  10
-19.70917
  20
31.85104
  30
0.0
   0
VERTEX
   5
522
100
AcDbEntity
   8
TITLEBLOCK
   6
CONTINUOUS
  62
      9
100
AcDbVertex
100
AcDb2dVertex
  10
-19.64667
  20
30.85104
  30
0.0
   0
VERTEX
   5
523
100
AcDbEntity
   8
TITLEBLOCK
   6
CONTINUOUS
  62
      9
100
AcDbVertex
100
AcDb2dVertex
  10
-19.58417
  20
30.95929
  30
0.0
   0
SEQEND
   5
524
100
AcDbEntity
   8
TITLEBLOCK
   6
CONTINUOUS
   0
POLYLINE
   5
525
100
AcDbEntity
   8
TITLEBLOCK
   6
CONTINUOUS
  62
      9
100
AcDb2dPolyline
  66
      1
  10
0.0
  20
0.0
  30
0.0
  70
      1
  75
      5
   0
VERTEX
   5
526
100
AcDbEntity
   8
TITLEBLOCK
   6
CONTINUOUS
  62
      9
100
AcDbVertex
100
AcDb2dVertex
  10
-19.64667
  20
30.85104
  30
0.0
   0
VERTEX
   5
527
100
AcDbEntity
   8
TITLEBLOCK
   6
CONTINUOUS
  62
      9
100
AcDbVertex
100
AcDb2dVertex
  10
-19.70917
  20
30.95929
  30
0.0
   0
VERTEX
   5
528
100
AcDbEntity
   8
TITLEBLOCK
   6
CONTINUOUS
  62
      9
100
AcDbVertex
100
AcDb2dVertex
  10
-19.77167
  20
31.74278
  30
0.0
   0
VERTEX
   5
529
100
AcDbEntity
   8
TITLEBLOCK
   6
CONTINUOUS
  62
      9
100
AcDbVertex
100
AcDb2dVertex
  10
-19.70917
  20
31.85103
  30
0.0
   0
SEQEND
   5
52A
100
AcDbEntity
   8
TITLEBLOCK
   6
CONTINUOUS
   0
POLYLINE
   5
52B
100
AcDbEntity
   8
TITLEBLOCK
   6
CONTINUOUS
  62
      9
100
AcDb2dPolyline
  66
      1
  10
0.0
  20
0.0
  30
0.0
  70
      1
  75
      5
   0
VERTEX
   5
52C
100
AcDbEntity
   8
TITLEBLOCK
   6
CONTINUOUS
  62
      9
100
AcDbVertex
100
AcDb2dVertex
  10
-19.77167
  20
31.74278
  30
0.0
   0
VERTEX
   5
52D
100
AcDbEntity
   8
TITLEBLOCK
   6
CONTINUOUS
  62
      9
100
AcDbVertex
100
AcDb2dVertex
  10
-19.83417
  20
31.85103
  30
0.0
   0
VERTEX
   5
52E
100
AcDbEntity
   8
TITLEBLOCK
   6
CONTINUOUS
  62
      9
100
AcDbVertex
100
AcDb2dVertex
  10
-19.77167
  20
30.85103
  30
0.0
   0
VERTEX
   5
52F
100
AcDbEntity
   8
TITLEBLOCK
   6
CONTINUOUS
  62
      9
100
AcDbVertex
100
AcDb2dVertex
  10
-19.70917
  20
30.95928
  30
0.0
   0
SEQEND
   5
530
100
AcDbEntity
   8
TITLEBLOCK
   6
CONTINUOUS
   0
POLYLINE
   5
531
100
AcDbEntity
   8
TITLEBLOCK
   6
CONTINUOUS
  62
      9
100
AcDb2dPolyline
  66
      1
  10
0.0
  20
0.0
  30
0.0
  70
      1
  75
      5
   0
VERTEX
   5
532
100
AcDbEntity
   8
TITLEBLOCK
   6
CONTINUOUS
  62
      9
100
AcDbVertex
100
AcDb2dVertex
  10
-19.77167
  20
30.85103
  30
0.0
   0
VERTEX
   5
533
100
AcDbEntity
   8
TITLEBLOCK
   6
CONTINUOUS
  62
      9
100
AcDbVertex
100
AcDb2dVertex
  10
-19.83417
  20
30.95928
  30
0.0
   0
VERTEX
   5
534
100
AcDbEntity
   8
TITLEBLOCK
   6
CONTINUOUS
  62
      9
100
AcDbVertex
100
AcDb2dVertex
  10
-19.89667
  20
31.74277
  30
0.0
   0
VERTEX
   5
535
100
AcDbEntity
   8
TITLEBLOCK
   6
CONTINUOUS
  62
      9
100
AcDbVertex
100
AcDb2dVertex
  10
-19.83417
  20
31.85102
  30
0.0
   0
SEQEND
   5
536
100
AcDbEntity
   8
TITLEBLOCK
   6
CONTINUOUS
   0
POLYLINE
   5
537
100
AcDbEntity
   8
TITLEBLOCK
   6
CONTINUOUS
  62
      9
100
AcDb2dPolyline
  66
      1
  10
0.0
  20
0.0
  30
0.0
  70
      1
  75
      5
   0
VERTEX
   5
538
100
AcDbEntity
   8
TITLEBLOCK
   6
CONTINUOUS
  62
      9
100
AcDbVertex
100
AcDb2dVertex
  10
-19.89667
  20
31.74277
  30
0.0
   0
VERTEX
   5
539
100
AcDbEntity
   8
TITLEBLOCK
   6
CONTINUOUS
  62
      9
100
AcDbVertex
100
AcDb2dVertex
  10
-19.95917
  20
31.85102
  30
0.0
   0
VERTEX
   5
53A
100
AcDbEntity
   8
TITLEBLOCK
   6
CONTINUOUS
  62
      9
100
AcDbVertex
100
AcDb2dVertex
  10
-19.89667
  20
30.85102
  30
0.0
   0
VERTEX
   5
53B
100
AcDbEntity
   8
TITLEBLOCK
   6
CONTINUOUS
  62
      9
100
AcDbVertex
100
AcDb2dVertex
  10
-19.83417
  20
30.95927
  30
0.0
   0
SEQEND
   5
53C
100
AcDbEntity
   8
TITLEBLOCK
   6
CONTINUOUS
   0
POLYLINE
   5
53D
100
AcDbEntity
   8
TITLEBLOCK
   6
CONTINUOUS
  62
      9
100
AcDb2dPolyline
  66
      1
  10
0.0
  20
0.0
  30
0.0
  70
      1
  75
      5
   0
VERTEX
   5
53E
100
AcDbEntity
   8
TITLEBLOCK
   6
CONTINUOUS
  62
      9
100
AcDbVertex
100
AcDb2dVertex
  10
-19.89667
  20
30.85102
  30
0.0
   0
VERTEX
   5
53F
100
AcDbEntity
   8
TITLEBLOCK
   6
CONTINUOUS
  62
      9
100
AcDbVertex
100
AcDb2dVertex
  10
-19.95917
  20
30.95927
  30
0.0
   0
VERTEX
   5
540
100
AcDbEntity
   8
TITLEBLOCK
   6
CONTINUOUS
  62
      9
100
AcDbVertex
100
AcDb2dVertex
  10
-20.02167
  20
31.74276
  30
0.0
   0
VERTEX
   5
541
100
AcDbEntity
   8
TITLEBLOCK
   6
CONTINUOUS
  62
      9
100
AcDbVertex
100
AcDb2dVertex
  10
-19.95917
  20
31.85101
  30
0.0
   0
SEQEND
   5
542
100
AcDbEntity
   8
TITLEBLOCK
   6
CONTINUOUS
   0
POLYLINE
   5
543
100
AcDbEntity
   8
TITLEBLOCK
   6
CONTINUOUS
  62
      9
100
AcDb2dPolyline
  66
      1
  10
0.0
  20
0.0
  30
0.0
  70
      1
  75
      5
   0
VERTEX
   5
544
100
AcDbEntity
   8
TITLEBLOCK
   6
CONTINUOUS
  62
      9
100
AcDbVertex
100
AcDb2dVertex
  10
-20.02167
  20
31.74276
  30
0.0
   0
VERTEX
   5
545
100
AcDbEntity
   8
TITLEBLOCK
   6
CONTINUOUS
  62
      9
100
AcDbVertex
100
AcDb2dVertex
  10
-20.08417
  20
31.85101
  30
0.0
   0
VERTEX
   5
546
100
AcDbEntity
   8
TITLEBLOCK
   6
CONTINUOUS
  62
      9
100
AcDbVertex
100
AcDb2dVertex
  10
-20.02167
  20
30.85101
  30
0.0
   0
VERTEX
   5
547
100
AcDbEntity
   8
TITLEBLOCK
   6
CONTINUOUS
  62
      9
100
AcDbVertex
100
AcDb2dVertex
  10
-19.95917
  20
30.95926
  30
0.0
   0
SEQEND
   5
548
100
AcDbEntity
   8
TITLEBLOCK
   6
CONTINUOUS
   0
POLYLINE
   5
549
100
AcDbEntity
   8
TITLEBLOCK
   6
CONTINUOUS
  62
      9
100
AcDb2dPolyline
  66
      1
  10
0.0
  20
0.0
  30
0.0
  70
      1
  75
      5
   0
VERTEX
   5
54A
100
AcDbEntity
   8
TITLEBLOCK
   6
CONTINUOUS
  62
      9
100
AcDbVertex
100
AcDb2dVertex
  10
-20.02167
  20
30.85101
  30
0.0
   0
VERTEX
   5
54B
100
AcDbEntity
   8
TITLEBLOCK
   6
CONTINUOUS
  62
      9
100
AcDbVertex
100
AcDb2dVertex
  10
-20.08417
  20
30.95926
  30
0.0
   0
VERTEX
   5
54C
100
AcDbEntity
   8
TITLEBLOCK
   6
CONTINUOUS
  62
      9
100
AcDbVertex
100
AcDb2dVertex
  10
-20.14667
  20
31.74275
  30
0.0
   0
VERTEX
   5
54D
100
AcDbEntity
   8
TITLEBLOCK
   6
CONTINUOUS
  62
      9
100
AcDbVertex
100
AcDb2dVertex
  10
-20.08417
  20
31.851
  30
0.0
   0
SEQEND
   5
54E
100
AcDbEntity
   8
TITLEBLOCK
   6
CONTINUOUS
   0
POLYLINE
   5
54F
100
AcDbEntity
   8
TITLEBLOCK
   6
CONTINUOUS
  62
      9
100
AcDb2dPolyline
  66
      1
  10
0.0
  20
0.0
  30
0.0
  70
      1
  75
      5
   0
VERTEX
   5
550
100
AcDbEntity
   8
TITLEBLOCK
   6
CONTINUOUS
  62
      9
100
AcDbVertex
100
AcDb2dVertex
  10
-20.14667
  20
31.74275
  30
0.0
   0
VERTEX
   5
551
100
AcDbEntity
   8
TITLEBLOCK
   6
CONTINUOUS
  62
      9
100
AcDbVertex
100
AcDb2dVertex
  10
-20.20917
  20
31.851
  30
0.0
   0
VERTEX
   5
552
100
AcDbEntity
   8
TITLEBLOCK
   6
CONTINUOUS
  62
      9
100
AcDbVertex
100
AcDb2dVertex
  10
-20.14667
  20
30.851
  30
0.0
   0
VERTEX
   5
553
100
AcDbEntity
   8
TITLEBLOCK
   6
CONTINUOUS
  62
      9
100
AcDbVertex
100
AcDb2dVertex
  10
-20.08417
  20
30.95925
  30
0.0
   0
SEQEND
   5
554
100
AcDbEntity
   8
TITLEBLOCK
   6
CONTINUOUS
   0
POLYLINE
   5
555
100
AcDbEntity
   8
TITLEBLOCK
   6
CONTINUOUS
  62
      9
100
AcDb2dPolyline
  66
      1
  10
0.0
  20
0.0
  30
0.0
  70
      1
  75
      5
   0
VERTEX
   5
556
100
AcDbEntity
   8
TITLEBLOCK
   6
CONTINUOUS
  62
      9
100
AcDbVertex
100
AcDb2dVertex
  10
-20.14667
  20
30.851
  30
0.0
   0
VERTEX
   5
557
100
AcDbEntity
   8
TITLEBLOCK
   6
CONTINUOUS
  62
      9
100
AcDbVertex
100
AcDb2dVertex
  10
-20.20917
  20
30.95925
  30
0.0
   0
VERTEX
   5
558
100
AcDbEntity
   8
TITLEBLOCK
   6
CONTINUOUS
  62
      9
100
AcDbVertex
100
AcDb2dVertex
  10
-20.27167
  20
31.74274
  30
0.0
   0
VERTEX
   5
559
100
AcDbEntity
   8
TITLEBLOCK
   6
CONTINUOUS
  62
      9
100
AcDbVertex
100
AcDb2dVertex
  10
-20.20917
  20
31.85099
  30
0.0
   0
SEQEND
   5
55A
100
AcDbEntity
   8
TITLEBLOCK
   6
CONTINUOUS
   0
POLYLINE
   5
55B
100
AcDbEntity
   8
TITLEBLOCK
   6
CONTINUOUS
  62
      9
100
AcDb2dPolyline
  66
      1
  10
0.0
  20
0.0
  30
0.0
  70
      1
  75
      5
   0
VERTEX
   5
55C
100
AcDbEntity
   8
TITLEBLOCK
   6
CONTINUOUS
  62
      9
100
AcDbVertex
100
AcDb2dVertex
  10
-20.27167
  20
31.74274
  30
0.0
   0
VERTEX
   5
55D
100
AcDbEntity
   8
TITLEBLOCK
   6
CONTINUOUS
  62
      9
100
AcDbVertex
100
AcDb2dVertex
  10
-20.33417
  20
31.85099
  30
0.0
   0
VERTEX
   5
55E
100
AcDbEntity
   8
TITLEBLOCK
   6
CONTINUOUS
  62
      9
100
AcDbVertex
100
AcDb2dVertex
  10
-20.27167
  20
30.85099
  30
0.0
   0
VERTEX
   5
55F
100
AcDbEntity
   8
TITLEBLOCK
   6
CONTINUOUS
  62
      9
100
AcDbVertex
100
AcDb2dVertex
  10
-20.20917
  20
30.95924
  30
0.0
   0
SEQEND
   5
560
100
AcDbEntity
   8
TITLEBLOCK
   6
CONTINUOUS
   0
POLYLINE
   5
561
100
AcDbEntity
   8
TITLEBLOCK
   6
CONTINUOUS
  62
      9
100
AcDb2dPolyline
  66
      1
  10
0.0
  20
0.0
  30
0.0
  70
      1
  75
      5
   0
VERTEX
   5
562
100
AcDbEntity
   8
TITLEBLOCK
   6
CONTINUOUS
  62
      9
100
AcDbVertex
100
AcDb2dVertex
  10
-20.27167
  20
30.85099
  30
0.0
   0
VERTEX
   5
563
100
AcDbEntity
   8
TITLEBLOCK
   6
CONTINUOUS
  62
      9
100
AcDbVertex
100
AcDb2dVertex
  10
-20.33417
  20
30.95924
  30
0.0
   0
VERTEX
   5
564
100
AcDbEntity
   8
TITLEBLOCK
   6
CONTINUOUS
  62
      9
100
AcDbVertex
100
AcDb2dVertex
  10
-20.39667
  20
31.74273
  30
0.0
   0
VERTEX
   5
565
100
AcDbEntity
   8
TITLEBLOCK
   6
CONTINUOUS
  62
      9
100
AcDbVertex
100
AcDb2dVertex
  10
-20.33417
  20
31.85098
  30
0.0
   0
SEQEND
   5
566
100
AcDbEntity
   8
TITLEBLOCK
   6
CONTINUOUS
   0
POLYLINE
   5
567
100
AcDbEntity
   8
TITLEBLOCK
   6
CONTINUOUS
  62
      9
100
AcDb2dPolyline
  66
      1
  10
0.0
  20
0.0
  30
0.0
  70
      1
  75
      5
   0
VERTEX
   5
568
100
AcDbEntity
   8
TITLEBLOCK
   6
CONTINUOUS
  62
      9
100
AcDbVertex
100
AcDb2dVertex
  10
-20.39667
  20
31.74273
  30
0.0
   0
VERTEX
   5
569
100
AcDbEntity
   8
TITLEBLOCK
   6
CONTINUOUS
  62
      9
100
AcDbVertex
100
AcDb2dVertex
  10
-20.45917
  20
31.85098
  30
0.0
   0
VERTEX
   5
56A
100
AcDbEntity
   8
TITLEBLOCK
   6
CONTINUOUS
  62
      9
100
AcDbVertex
100
AcDb2dVertex
  10
-20.39667
  20
30.85098
  30
0.0
   0
VERTEX
   5
56B
100
AcDbEntity
   8
TITLEBLOCK
   6
CONTINUOUS
  62
      9
100
AcDbVertex
100
AcDb2dVertex
  10
-20.33417
  20
30.95923
  30
0.0
   0
SEQEND
   5
56C
100
AcDbEntity
   8
TITLEBLOCK
   6
CONTINUOUS
   0
POLYLINE
   5
56D
100
AcDbEntity
   8
TITLEBLOCK
   6
CONTINUOUS
  62
      9
100
AcDb2dPolyline
  66
      1
  10
0.0
  20
0.0
  30
0.0
  70
      1
  75
      5
   0
VERTEX
   5
56E
100
AcDbEntity
   8
TITLEBLOCK
   6
CONTINUOUS
  62
      9
100
AcDbVertex
100
AcDb2dVertex
  10
-20.39667
  20
30.85098
  30
0.0
   0
VERTEX
   5
56F
100
AcDbEntity
   8
TITLEBLOCK
   6
CONTINUOUS
  62
      9
100
AcDbVertex
100
AcDb2dVertex
  10
-20.45917
  20
30.95923
  30
0.0
   0
VERTEX
   5
570
100
AcDbEntity
   8
TITLEBLOCK
   6
CONTINUOUS
  62
      9
100
AcDbVertex
100
AcDb2dVertex
  10
-20.52167
  20
31.74272
  30
0.0
   0
VERTEX
   5
571
100
AcDbEntity
   8
TITLEBLOCK
   6
CONTINUOUS
  62
      9
100
AcDbVertex
100
AcDb2dVertex
  10
-20.45917
  20
31.85097
  30
0.0
   0
SEQEND
   5
572
100
AcDbEntity
   8
TITLEBLOCK
   6
CONTINUOUS
   0
POLYLINE
   5
573
100
AcDbEntity
   8
TITLEBLOCK
   6
CONTINUOUS
  62
      9
100
AcDb2dPolyline
  66
      1
  10
0.0
  20
0.0
  30
0.0
  70
      1
  75
      5
   0
VERTEX
   5
574
100
AcDbEntity
   8
TITLEBLOCK
   6
CONTINUOUS
  62
      9
100
AcDbVertex
100
AcDb2dVertex
  10
-20.52167
  20
31.74272
  30
0.0
   0
VERTEX
   5
575
100
AcDbEntity
   8
TITLEBLOCK
   6
CONTINUOUS
  62
      9
100
AcDbVertex
100
AcDb2dVertex
  10
-20.58417
  20
31.85097
  30
0.0
   0
VERTEX
   5
576
100
AcDbEntity
   8
TITLEBLOCK
   6
CONTINUOUS
  62
      9
100
AcDbVertex
100
AcDb2dVertex
  10
-20.52167
  20
30.85097
  30
0.0
   0
VERTEX
   5
577
100
AcDbEntity
   8
TITLEBLOCK
   6
CONTINUOUS
  62
      9
100
AcDbVertex
100
AcDb2dVertex
  10
-20.45917
  20
30.95922
  30
0.0
   0
SEQEND
   5
578
100
AcDbEntity
   8
TITLEBLOCK
   6
CONTINUOUS
   0
POLYLINE
   5
579
100
AcDbEntity
   8
TITLEBLOCK
   6
CONTINUOUS
  62
      9
100
AcDb2dPolyline
  66
      1
  10
0.0
  20
0.0
  30
0.0
  70
      1
  75
      5
   0
VERTEX
   5
57A
100
AcDbEntity
   8
TITLEBLOCK
   6
CONTINUOUS
  62
      9
100
AcDbVertex
100
AcDb2dVertex
  10
-20.52167
  20
30.85097
  30
0.0
   0
VERTEX
   5
57B
100
AcDbEntity
   8
TITLEBLOCK
   6
CONTINUOUS
  62
      9
100
AcDbVertex
100
AcDb2dVertex
  10
-20.58417
  20
30.95922
  30
0.0
   0
VERTEX
   5
57C
100
AcDbEntity
   8
TITLEBLOCK
   6
CONTINUOUS
  62
      9
100
AcDbVertex
100
AcDb2dVertex
  10
-20.64667
  20
31.74271
  30
0.0
   0
VERTEX
   5
57D
100
AcDbEntity
   8
TITLEBLOCK
   6
CONTINUOUS
  62
      9
100
AcDbVertex
100
AcDb2dVertex
  10
-20.58417
  20
31.85096
  30
0.0
   0
SEQEND
   5
57E
100
AcDbEntity
   8
TITLEBLOCK
   6
CONTINUOUS
   0
POLYLINE
   5
57F
100
AcDbEntity
   8
TITLEBLOCK
   6
CONTINUOUS
  62
      9
100
AcDb2dPolyline
  66
      1
  10
0.0
  20
0.0
  30
0.0
  70
      1
  75
      5
   0
VERTEX
   5
580
100
AcDbEntity
   8
TITLEBLOCK
   6
CONTINUOUS
  62
      9
100
AcDbVertex
100
AcDb2dVertex
  10
-20.64667
  20
31.74271
  30
0.0
   0
VERTEX
   5
581
100
AcDbEntity
   8
TITLEBLOCK
   6
CONTINUOUS
  62
      9
100
AcDbVertex
100
AcDb2dVertex
  10
-20.70917
  20
31.85096
  30
0.0
   0
VERTEX
   5
582
100
AcDbEntity
   8
TITLEBLOCK
   6
CONTINUOUS
  62
      9
100
AcDbVertex
100
AcDb2dVertex
  10
-20.64667
  20
30.85096
  30
0.0
   0
VERTEX
   5
583
100
AcDbEntity
   8
TITLEBLOCK
   6
CONTINUOUS
  62
      9
100
AcDbVertex
100
AcDb2dVertex
  10
-20.58417
  20
30.95921
  30
0.0
   0
SEQEND
   5
584
100
AcDbEntity
   8
TITLEBLOCK
   6
CONTINUOUS
   0
POLYLINE
   5
585
100
AcDbEntity
   8
TITLEBLOCK
   6
CONTINUOUS
  62
      9
100
AcDb2dPolyline
  66
      1
  10
0.0
  20
0.0
  30
0.0
  70
      1
  75
      5
   0
VERTEX
   5
586
100
AcDbEntity
   8
TITLEBLOCK
   6
CONTINUOUS
  62
      9
100
AcDbVertex
100
AcDb2dVertex
  10
-20.64667
  20
30.85096
  30
0.0
   0
VERTEX
   5
587
100
AcDbEntity
   8
TITLEBLOCK
   6
CONTINUOUS
  62
      9
100
AcDbVertex
100
AcDb2dVertex
  10
-20.70917
  20
30.95921
  30
0.0
   0
VERTEX
   5
588
100
AcDbEntity
   8
TITLEBLOCK
   6
CONTINUOUS
  62
      9
100
AcDbVertex
100
AcDb2dVertex
  10
-20.77167
  20
31.7427
  30
0.0
   0
VERTEX
   5
589
100
AcDbEntity
   8
TITLEBLOCK
   6
CONTINUOUS
  62
      9
100
AcDbVertex
100
AcDb2dVertex
  10
-20.70917
  20
31.85095
  30
0.0
   0
SEQEND
   5
58A
100
AcDbEntity
   8
TITLEBLOCK
   6
CONTINUOUS
   0
POLYLINE
   5
58B
100
AcDbEntity
   8
TITLEBLOCK
   6
CONTINUOUS
  62
      9
100
AcDb2dPolyline
  66
      1
  10
0.0
  20
0.0
  30
0.0
  70
      1
  75
      5
   0
VERTEX
   5
58C
100
AcDbEntity
   8
TITLEBLOCK
   6
CONTINUOUS
  62
      9
100
AcDbVertex
100
AcDb2dVertex
  10
-20.77167
  20
31.7427
  30
0.0
   0
VERTEX
   5
58D
100
AcDbEntity
   8
TITLEBLOCK
   6
CONTINUOUS
  62
      9
100
AcDbVertex
100
AcDb2dVertex
  10
-20.83417
  20
31.85095
  30
0.0
   0
VERTEX
   5
58E
100
AcDbEntity
   8
TITLEBLOCK
   6
CONTINUOUS
  62
      9
100
AcDbVertex
100
AcDb2dVertex
  10
-20.77167
  20
30.85095
  30
0.0
   0
VERTEX
   5
58F
100
AcDbEntity
   8
TITLEBLOCK
   6
CONTINUOUS
  62
      9
100
AcDbVertex
100
AcDb2dVertex
  10
-20.70917
  20
30.9592
  30
0.0
   0
SEQEND
   5
590
100
AcDbEntity
   8
TITLEBLOCK
   6
CONTINUOUS
   0
POLYLINE
   5
591
100
AcDbEntity
   8
TITLEBLOCK
   6
CONTINUOUS
  62
      9
100
AcDb2dPolyline
  66
      1
  10
0.0
  20
0.0
  30
0.0
  70
      1
  75
      5
   0
VERTEX
   5
592
100
AcDbEntity
   8
TITLEBLOCK
   6
CONTINUOUS
  62
      9
100
AcDbVertex
100
AcDb2dVertex
  10
-20.77167
  20
30.85095
  30
0.0
   0
VERTEX
   5
593
100
AcDbEntity
   8
TITLEBLOCK
   6
CONTINUOUS
  62
      9
100
AcDbVertex
100
AcDb2dVertex
  10
-20.83417
  20
30.9592
  30
0.0
   0
VERTEX
   5
594
100
AcDbEntity
   8
TITLEBLOCK
   6
CONTINUOUS
  62
      9
100
AcDbVertex
100
AcDb2dVertex
  10
-20.89667
  20
31.74269
  30
0.0
   0
VERTEX
   5
595
100
AcDbEntity
   8
TITLEBLOCK
   6
CONTINUOUS
  62
      9
100
AcDbVertex
100
AcDb2dVertex
  10
-20.83417
  20
31.85094
  30
0.0
   0
SEQEND
   5
596
100
AcDbEntity
   8
TITLEBLOCK
   6
CONTINUOUS
   0
POLYLINE
   5
597
100
AcDbEntity
   8
TITLEBLOCK
   6
CONTINUOUS
  62
      9
100
AcDb2dPolyline
  66
      1
  10
0.0
  20
0.0
  30
0.0
  70
      1
  75
      5
   0
VERTEX
   5
598
100
AcDbEntity
   8
TITLEBLOCK
   6
CONTINUOUS
  62
      9
100
AcDbVertex
100
AcDb2dVertex
  10
-20.89667
  20
31.74269
  30
0.0
   0
VERTEX
   5
599
100
AcDbEntity
   8
TITLEBLOCK
   6
CONTINUOUS
  62
      9
100
AcDbVertex
100
AcDb2dVertex
  10
-20.95917
  20
31.85094
  30
0.0
   0
VERTEX
   5
59A
100
AcDbEntity
   8
TITLEBLOCK
   6
CONTINUOUS
  62
      9
100
AcDbVertex
100
AcDb2dVertex
  10
-20.89667
  20
30.85094
  30
0.0
   0
VERTEX
   5
59B
100
AcDbEntity
   8
TITLEBLOCK
   6
CONTINUOUS
  62
      9
100
AcDbVertex
100
AcDb2dVertex
  10
-20.83417
  20
30.95919
  30
0.0
   0
SEQEND
   5
59C
100
AcDbEntity
   8
TITLEBLOCK
   6
CONTINUOUS
   0
POLYLINE
   5
59D
100
AcDbEntity
   8
TITLEBLOCK
   6
CONTINUOUS
  62
      9
100
AcDb2dPolyline
  66
      1
  10
0.0
  20
0.0
  30
0.0
  70
      1
  75
      5
   0
VERTEX
   5
59E
100
AcDbEntity
   8
TITLEBLOCK
   6
CONTINUOUS
  62
      9
100
AcDbVertex
100
AcDb2dVertex
  10
-20.89667
  20
30.85094
  30
0.0
   0
VERTEX
   5
59F
100
AcDbEntity
   8
TITLEBLOCK
   6
CONTINUOUS
  62
      9
100
AcDbVertex
100
AcDb2dVertex
  10
-20.95917
  20
30.95919
  30
0.0
   0
VERTEX
   5
5A0
100
AcDbEntity
   8
TITLEBLOCK
   6
CONTINUOUS
  62
      9
100
AcDbVertex
100
AcDb2dVertex
  10
-21.02167
  20
31.74268
  30
0.0
   0
VERTEX
   5
5A1
100
AcDbEntity
   8
TITLEBLOCK
   6
CONTINUOUS
  62
      9
100
AcDbVertex
100
AcDb2dVertex
  10
-20.95917
  20
31.85093
  30
0.0
   0
SEQEND
   5
5A2
100
AcDbEntity
   8
TITLEBLOCK
   6
CONTINUOUS
   0
POLYLINE
   5
5A3
100
AcDbEntity
   8
TITLEBLOCK
   6
CONTINUOUS
  62
      9
100
AcDb2dPolyline
  66
      1
  10
0.0
  20
0.0
  30
0.0
  70
      1
  75
      5
   0
VERTEX
   5
5A4
100
AcDbEntity
   8
TITLEBLOCK
   6
CONTINUOUS
  62
      9
100
AcDbVertex
100
AcDb2dVertex
  10
-21.02167
  20
31.74268
  30
0.0
   0
VERTEX
   5
5A5
100
AcDbEntity
   8
TITLEBLOCK
   6
CONTINUOUS
  62
      9
100
AcDbVertex
100
AcDb2dVertex
  10
-21.08417
  20
31.85093
  30
0.0
   0
VERTEX
   5
5A6
100
AcDbEntity
   8
TITLEBLOCK
   6
CONTINUOUS
  62
      9
100
AcDbVertex
100
AcDb2dVertex
  10
-21.02167
  20
30.85093
  30
0.0
   0
VERTEX
   5
5A7
100
AcDbEntity
   8
TITLEBLOCK
   6
CONTINUOUS
  62
      9
100
AcDbVertex
100
AcDb2dVertex
  10
-20.95917
  20
30.95918
  30
0.0
   0
SEQEND
   5
5A8
100
AcDbEntity
   8
TITLEBLOCK
   6
CONTINUOUS
   0
POLYLINE
   5
5A9
100
AcDbEntity
   8
TITLEBLOCK
   6
CONTINUOUS
  62
      9
100
AcDb2dPolyline
  66
      1
  10
0.0
  20
0.0
  30
0.0
  70
      1
  75
      5
   0
VERTEX
   5
5AA
100
AcDbEntity
   8
TITLEBLOCK
   6
CONTINUOUS
  62
      9
100
AcDbVertex
100
AcDb2dVertex
  10
-21.02167
  20
30.85093
  30
0.0
   0
VERTEX
   5
5AB
100
AcDbEntity
   8
TITLEBLOCK
   6
CONTINUOUS
  62
      9
100
AcDbVertex
100
AcDb2dVertex
  10
-21.08417
  20
30.95918
  30
0.0
   0
VERTEX
   5
5AC
100
AcDbEntity
   8
TITLEBLOCK
   6
CONTINUOUS
  62
      9
100
AcDbVertex
100
AcDb2dVertex
  10
-21.14667
  20
31.74267
  30
0.0
   0
VERTEX
   5
5AD
100
AcDbEntity
   8
TITLEBLOCK
   6
CONTINUOUS
  62
      9
100
AcDbVertex
100
AcDb2dVertex
  10
-21.08417
  20
31.85092
  30
0.0
   0
SEQEND
   5
5AE
100
AcDbEntity
   8
TITLEBLOCK
   6
CONTINUOUS
   0
POLYLINE
   5
5AF
100
AcDbEntity
   8
TITLEBLOCK
   6
CONTINUOUS
  62
      9
100
AcDb2dPolyline
  66
      1
  10
0.0
  20
0.0
  30
0.0
  70
      1
  75
      5
   0
VERTEX
   5
5B0
100
AcDbEntity
   8
TITLEBLOCK
   6
CONTINUOUS
  62
      9
100
AcDbVertex
100
AcDb2dVertex
  10
-21.14667
  20
31.74267
  30
0.0
   0
VERTEX
   5
5B1
100
AcDbEntity
   8
TITLEBLOCK
   6
CONTINUOUS
  62
      9
100
AcDbVertex
100
AcDb2dVertex
  10
-21.20917
  20
31.85092
  30
0.0
   0
VERTEX
   5
5B2
100
AcDbEntity
   8
TITLEBLOCK
   6
CONTINUOUS
  62
      9
100
AcDbVertex
100
AcDb2dVertex
  10
-21.14667
  20
30.85092
  30
0.0
   0
VERTEX
   5
5B3
100
AcDbEntity
   8
TITLEBLOCK
   6
CONTINUOUS
  62
      9
100
AcDbVertex
100
AcDb2dVertex
  10
-21.08417
  20
30.95917
  30
0.0
   0
SEQEND
   5
5B4
100
AcDbEntity
   8
TITLEBLOCK
   6
CONTINUOUS
   0
POLYLINE
   5
5B5
100
AcDbEntity
   8
TITLEBLOCK
   6
CONTINUOUS
  62
      9
100
AcDb2dPolyline
  66
      1
  10
0.0
  20
0.0
  30
0.0
  70
      1
  75
      5
   0
VERTEX
   5
5B6
100
AcDbEntity
   8
TITLEBLOCK
   6
CONTINUOUS
  62
      9
100
AcDbVertex
100
AcDb2dVertex
  10
-21.14667
  20
30.85092
  30
0.0
   0
VERTEX
   5
5B7
100
AcDbEntity
   8
TITLEBLOCK
   6
CONTINUOUS
  62
      9
100
AcDbVertex
100
AcDb2dVertex
  10
-21.20917
  20
30.95917
  30
0.0
   0
VERTEX
   5
5B8
100
AcDbEntity
   8
TITLEBLOCK
   6
CONTINUOUS
  62
      9
100
AcDbVertex
100
AcDb2dVertex
  10
-21.27167
  20
31.74266
  30
0.0
   0
VERTEX
   5
5B9
100
AcDbEntity
   8
TITLEBLOCK
   6
CONTINUOUS
  62
      9
100
AcDbVertex
100
AcDb2dVertex
  10
-21.20917
  20
31.85091
  30
0.0
   0
SEQEND
   5
5BA
100
AcDbEntity
   8
TITLEBLOCK
   6
CONTINUOUS
   0
POLYLINE
   5
5BB
100
AcDbEntity
   8
TITLEBLOCK
   6
CONTINUOUS
  62
      9
100
AcDb2dPolyline
  66
      1
  10
0.0
  20
0.0
  30
0.0
  70
      1
  75
      5
   0
VERTEX
   5
5BC
100
AcDbEntity
   8
TITLEBLOCK
   6
CONTINUOUS
  62
      9
100
AcDbVertex
100
AcDb2dVertex
  10
-21.27167
  20
31.74266
  30
0.0
   0
VERTEX
   5
5BD
100
AcDbEntity
   8
TITLEBLOCK
   6
CONTINUOUS
  62
      9
100
AcDbVertex
100
AcDb2dVertex
  10
-21.33417
  20
31.85091
  30
0.0
   0
VERTEX
   5
5BE
100
AcDbEntity
   8
TITLEBLOCK
   6
CONTINUOUS
  62
      9
100
AcDbVertex
100
AcDb2dVertex
  10
-21.27167
  20
30.85091
  30
0.0
   0
VERTEX
   5
5BF
100
AcDbEntity
   8
TITLEBLOCK
   6
CONTINUOUS
  62
      9
100
AcDbVertex
100
AcDb2dVertex
  10
-21.20917
  20
30.95916
  30
0.0
   0
SEQEND
   5
5C0
100
AcDbEntity
   8
TITLEBLOCK
   6
CONTINUOUS
   0
POLYLINE
   5
5C1
100
AcDbEntity
   8
TITLEBLOCK
   6
CONTINUOUS
  62
      9
100
AcDb2dPolyline
  66
      1
  10
0.0
  20
0.0
  30
0.0
  70
      1
  75
      5
   0
VERTEX
   5
5C2
100
AcDbEntity
   8
TITLEBLOCK
   6
CONTINUOUS
  62
      9
100
AcDbVertex
100
AcDb2dVertex
  10
-21.27167
  20
30.85091
  30
0.0
   0
VERTEX
   5
5C3
100
AcDbEntity
   8
TITLEBLOCK
   6
CONTINUOUS
  62
      9
100
AcDbVertex
100
AcDb2dVertex
  10
-21.33417
  20
30.95916
  30
0.0
   0
VERTEX
   5
5C4
100
AcDbEntity
   8
TITLEBLOCK
   6
CONTINUOUS
  62
      9
100
AcDbVertex
100
AcDb2dVertex
  10
-21.39667
  20
31.74265
  30
0.0
   0
VERTEX
   5
5C5
100
AcDbEntity
   8
TITLEBLOCK
   6
CONTINUOUS
  62
      9
100
AcDbVertex
100
AcDb2dVertex
  10
-21.33417
  20
31.8509
  30
0.0
   0
SEQEND
   5
5C6
100
AcDbEntity
   8
TITLEBLOCK
   6
CONTINUOUS
   0
POLYLINE
   5
5C7
100
AcDbEntity
   8
TITLEBLOCK
   6
CONTINUOUS
  62
      9
100
AcDb2dPolyline
  66
      1
  10
0.0
  20
0.0
  30
0.0
  70
      1
  75
      5
   0
VERTEX
   5
5C8
100
AcDbEntity
   8
TITLEBLOCK
   6
CONTINUOUS
  62
      9
100
AcDbVertex
100
AcDb2dVertex
  10
-21.39667
  20
31.74265
  30
0.0
   0
VERTEX
   5
5C9
100
AcDbEntity
   8
TITLEBLOCK
   6
CONTINUOUS
  62
      9
100
AcDbVertex
100
AcDb2dVertex
  10
-21.45917
  20
31.8509
  30
0.0
   0
VERTEX
   5
5CA
100
AcDbEntity
   8
TITLEBLOCK
   6
CONTINUOUS
  62
      9
100
AcDbVertex
100
AcDb2dVertex
  10
-21.39667
  20
30.8509
  30
0.0
   0
VERTEX
   5
5CB
100
AcDbEntity
   8
TITLEBLOCK
   6
CONTINUOUS
  62
      9
100
AcDbVertex
100
AcDb2dVertex
  10
-21.33417
  20
30.95915
  30
0.0
   0
SEQEND
   5
5CC
100
AcDbEntity
   8
TITLEBLOCK
   6
CONTINUOUS
   0
POLYLINE
   5
5CD
100
AcDbEntity
   8
TITLEBLOCK
   6
CONTINUOUS
  62
      9
100
AcDb2dPolyline
  66
      1
  10
0.0
  20
0.0
  30
0.0
  70
      1
  75
      5
   0
VERTEX
   5
5CE
100
AcDbEntity
   8
TITLEBLOCK
   6
CONTINUOUS
  62
      9
100
AcDbVertex
100
AcDb2dVertex
  10
-21.39667
  20
30.8509
  30
0.0
   0
VERTEX
   5
5CF
100
AcDbEntity
   8
TITLEBLOCK
   6
CONTINUOUS
  62
      9
100
AcDbVertex
100
AcDb2dVertex
  10
-21.45917
  20
30.95915
  30
0.0
   0
VERTEX
   5
5D0
100
AcDbEntity
   8
TITLEBLOCK
   6
CONTINUOUS
  62
      9
100
AcDbVertex
100
AcDb2dVertex
  10
-21.52167
  20
31.74264
  30
0.0
   0
VERTEX
   5
5D1
100
AcDbEntity
   8
TITLEBLOCK
   6
CONTINUOUS
  62
      9
100
AcDbVertex
100
AcDb2dVertex
  10
-21.45917
  20
31.85089
  30
0.0
   0
SEQEND
   5
5D2
100
AcDbEntity
   8
TITLEBLOCK
   6
CONTINUOUS
   0
POLYLINE
   5
5D3
100
AcDbEntity
   8
TITLEBLOCK
   6
CONTINUOUS
  62
      9
100
AcDb2dPolyline
  66
      1
  10
0.0
  20
0.0
  30
0.0
  70
      1
  75
      5
   0
VERTEX
   5
5D4
100
AcDbEntity
   8
TITLEBLOCK
   6
CONTINUOUS
  62
      9
100
AcDbVertex
100
AcDb2dVertex
  10
-21.52167
  20
31.74264
  30
0.0
   0
VERTEX
   5
5D5
100
AcDbEntity
   8
TITLEBLOCK
   6
CONTINUOUS
  62
      9
100
AcDbVertex
100
AcDb2dVertex
  10
-21.58417
  20
31.85089
  30
0.0
   0
VERTEX
   5
5D6
100
AcDbEntity
   8
TITLEBLOCK
   6
CONTINUOUS
  62
      9
100
AcDbVertex
100
AcDb2dVertex
  10
-21.52167
  20
30.85089
  30
0.0
   0
VERTEX
   5
5D7
100
AcDbEntity
   8
TITLEBLOCK
   6
CONTINUOUS
  62
      9
100
AcDbVertex
100
AcDb2dVertex
  10
-21.45917
  20
30.95914
  30
0.0
   0
SEQEND
   5
5D8
100
AcDbEntity
   8
TITLEBLOCK
   6
CONTINUOUS
   0
POLYLINE
   5
5D9
100
AcDbEntity
   8
TITLEBLOCK
   6
CONTINUOUS
  62
      9
100
AcDb2dPolyline
  66
      1
  10
0.0
  20
0.0
  30
0.0
  70
      1
  75
      5
   0
VERTEX
   5
5DA
100
AcDbEntity
   8
TITLEBLOCK
   6
CONTINUOUS
  62
      9
100
AcDbVertex
100
AcDb2dVertex
  10
-21.52167
  20
30.85089
  30
0.0
   0
VERTEX
   5
5DB
100
AcDbEntity
   8
TITLEBLOCK
   6
CONTINUOUS
  62
      9
100
AcDbVertex
100
AcDb2dVertex
  10
-21.58417
  20
30.95914
  30
0.0
   0
VERTEX
   5
5DC
100
AcDbEntity
   8
TITLEBLOCK
   6
CONTINUOUS
  62
      9
100
AcDbVertex
100
AcDb2dVertex
  10
-21.64667
  20
31.74263
  30
0.0
   0
VERTEX
   5
5DD
100
AcDbEntity
   8
TITLEBLOCK
   6
CONTINUOUS
  62
      9
100
AcDbVertex
100
AcDb2dVertex
  10
-21.58417
  20
31.85088
  30
0.0
   0
SEQEND
   5
5DE
100
AcDbEntity
   8
TITLEBLOCK
   6
CONTINUOUS
   0
POLYLINE
   5
5DF
100
AcDbEntity
   8
TITLEBLOCK
   6
CONTINUOUS
  62
      9
100
AcDb2dPolyline
  66
      1
  10
0.0
  20
0.0
  30
0.0
  70
      1
  75
      5
   0
VERTEX
   5
5E0
100
AcDbEntity
   8
TITLEBLOCK
   6
CONTINUOUS
  62
      9
100
AcDbVertex
100
AcDb2dVertex
  10
-21.64667
  20
31.74263
  30
0.0
   0
VERTEX
   5
5E1
100
AcDbEntity
   8
TITLEBLOCK
   6
CONTINUOUS
  62
      9
100
AcDbVertex
100
AcDb2dVertex
  10
-21.70917
  20
31.85088
  30
0.0
   0
VERTEX
   5
5E2
100
AcDbEntity
   8
TITLEBLOCK
   6
CONTINUOUS
  62
      9
100
AcDbVertex
100
AcDb2dVertex
  10
-21.64667
  20
30.85088
  30
0.0
   0
VERTEX
   5
5E3
100
AcDbEntity
   8
TITLEBLOCK
   6
CONTINUOUS
  62
      9
100
AcDbVertex
100
AcDb2dVertex
  10
-21.58417
  20
30.95913
  30
0.0
   0
SEQEND
   5
5E4
100
AcDbEntity
   8
TITLEBLOCK
   6
CONTINUOUS
   0
POLYLINE
   5
5E5
100
AcDbEntity
   8
TITLEBLOCK
   6
CONTINUOUS
  62
      9
100
AcDb2dPolyline
  66
      1
  10
0.0
  20
0.0
  30
0.0
  70
      1
  75
      5
   0
VERTEX
   5
5E6
100
AcDbEntity
   8
TITLEBLOCK
   6
CONTINUOUS
  62
      9
100
AcDbVertex
100
AcDb2dVertex
  10
-21.64667
  20
30.85088
  30
0.0
   0
VERTEX
   5
5E7
100
AcDbEntity
   8
TITLEBLOCK
   6
CONTINUOUS
  62
      9
100
AcDbVertex
100
AcDb2dVertex
  10
-21.70917
  20
30.95913
  30
0.0
   0
VERTEX
   5
5E8
100
AcDbEntity
   8
TITLEBLOCK
   6
CONTINUOUS
  62
      9
100
AcDbVertex
100
AcDb2dVertex
  10
-21.77167
  20
31.74262
  30
0.0
   0
VERTEX
   5
5E9
100
AcDbEntity
   8
TITLEBLOCK
   6
CONTINUOUS
  62
      9
100
AcDbVertex
100
AcDb2dVertex
  10
-21.70917
  20
31.85087
  30
0.0
   0
SEQEND
   5
5EA
100
AcDbEntity
   8
TITLEBLOCK
   6
CONTINUOUS
   0
POLYLINE
   5
5EB
100
AcDbEntity
   8
TITLEBLOCK
   6
CONTINUOUS
  62
      9
100
AcDb2dPolyline
  66
      1
  10
0.0
  20
0.0
  30
0.0
  70
      1
  75
      5
   0
VERTEX
   5
5EC
100
AcDbEntity
   8
TITLEBLOCK
   6
CONTINUOUS
  62
      9
100
AcDbVertex
100
AcDb2dVertex
  10
-21.77167
  20
31.74262
  30
0.0
   0
VERTEX
   5
5ED
100
AcDbEntity
   8
TITLEBLOCK
   6
CONTINUOUS
  62
      9
100
AcDbVertex
100
AcDb2dVertex
  10
-21.83417
  20
31.85087
  30
0.0
   0
VERTEX
   5
5EE
100
AcDbEntity
   8
TITLEBLOCK
   6
CONTINUOUS
  62
      9
100
AcDbVertex
100
AcDb2dVertex
  10
-21.77167
  20
30.85087
  30
0.0
   0
VERTEX
   5
5EF
100
AcDbEntity
   8
TITLEBLOCK
   6
CONTINUOUS
  62
      9
100
AcDbVertex
100
AcDb2dVertex
  10
-21.70917
  20
30.95912
  30
0.0
   0
SEQEND
   5
5F0
100
AcDbEntity
   8
TITLEBLOCK
   6
CONTINUOUS
   0
POLYLINE
   5
5F1
100
AcDbEntity
   8
TITLEBLOCK
   6
CONTINUOUS
  62
      9
100
AcDb2dPolyline
  66
      1
  10
0.0
  20
0.0
  30
0.0
  70
      1
  75
      5
   0
VERTEX
   5
5F2
100
AcDbEntity
   8
TITLEBLOCK
   6
CONTINUOUS
  62
      9
100
AcDbVertex
100
AcDb2dVertex
  10
-21.77167
  20
30.85087
  30
0.0
   0
VERTEX
   5
5F3
100
AcDbEntity
   8
TITLEBLOCK
   6
CONTINUOUS
  62
      9
100
AcDbVertex
100
AcDb2dVertex
  10
-21.83417
  20
30.95912
  30
0.0
   0
VERTEX
   5
5F4
100
AcDbEntity
   8
TITLEBLOCK
   6
CONTINUOUS
  62
      9
100
AcDbVertex
100
AcDb2dVertex
  10
-21.89667
  20
31.74261
  30
0.0
   0
VERTEX
   5
5F5
100
AcDbEntity
   8
TITLEBLOCK
   6
CONTINUOUS
  62
      9
100
AcDbVertex
100
AcDb2dVertex
  10
-21.83417
  20
31.85086
  30
0.0
   0
SEQEND
   5
5F6
100
AcDbEntity
   8
TITLEBLOCK
   6
CONTINUOUS
   0
POLYLINE
   5
5F7
100
AcDbEntity
   8
TITLEBLOCK
   6
CONTINUOUS
  62
      9
100
AcDb2dPolyline
  66
      1
  10
0.0
  20
0.0
  30
0.0
  70
      1
  75
      5
   0
VERTEX
   5
5F8
100
AcDbEntity
   8
TITLEBLOCK
   6
CONTINUOUS
  62
      9
100
AcDbVertex
100
AcDb2dVertex
  10
-21.89667
  20
31.74261
  30
0.0
   0
VERTEX
   5
5F9
100
AcDbEntity
   8
TITLEBLOCK
   6
CONTINUOUS
  62
      9
100
AcDbVertex
100
AcDb2dVertex
  10
-21.95917
  20
31.85086
  30
0.0
   0
VERTEX
   5
5FA
100
AcDbEntity
   8
TITLEBLOCK
   6
CONTINUOUS
  62
      9
100
AcDbVertex
100
AcDb2dVertex
  10
-21.89667
  20
30.85086
  30
0.0
   0
VERTEX
   5
5FB
100
AcDbEntity
   8
TITLEBLOCK
   6
CONTINUOUS
  62
      9
100
AcDbVertex
100
AcDb2dVertex
  10
-21.83417
  20
30.95911
  30
0.0
   0
SEQEND
   5
5FC
100
AcDbEntity
   8
TITLEBLOCK
   6
CONTINUOUS
   0
POLYLINE
   5
5FD
100
AcDbEntity
   8
TITLEBLOCK
   6
CONTINUOUS
  62
      9
100
AcDb2dPolyline
  66
      1
  10
0.0
  20
0.0
  30
0.0
  70
      1
  75
      5
   0
VERTEX
   5
5FE
100
AcDbEntity
   8
TITLEBLOCK
   6
CONTINUOUS
  62
      9
100
AcDbVertex
100
AcDb2dVertex
  10
-21.89667
  20
30.85086
  30
0.0
   0
VERTEX
   5
5FF
100
AcDbEntity
   8
TITLEBLOCK
   6
CONTINUOUS
  62
      9
100
AcDbVertex
100
AcDb2dVertex
  10
-21.95917
  20
30.95911
  30
0.0
   0
VERTEX
   5
600
100
AcDbEntity
   8
TITLEBLOCK
   6
CONTINUOUS
  62
      9
100
AcDbVertex
100
AcDb2dVertex
  10
-22.02167
  20
31.7426
  30
0.0
   0
VERTEX
   5
601
100
AcDbEntity
   8
TITLEBLOCK
   6
CONTINUOUS
  62
      9
100
AcDbVertex
100
AcDb2dVertex
  10
-21.95917
  20
31.85085
  30
0.0
   0
SEQEND
   5
602
100
AcDbEntity
   8
TITLEBLOCK
   6
CONTINUOUS
   0
POLYLINE
   5
603
100
AcDbEntity
   8
TITLEBLOCK
   6
CONTINUOUS
  62
      9
100
AcDb2dPolyline
  66
      1
  10
0.0
  20
0.0
  30
0.0
  70
      1
  75
      5
   0
VERTEX
   5
604
100
AcDbEntity
   8
TITLEBLOCK
   6
CONTINUOUS
  62
      9
100
AcDbVertex
100
AcDb2dVertex
  10
-22.02167
  20
31.7426
  30
0.0
   0
VERTEX
   5
605
100
AcDbEntity
   8
TITLEBLOCK
   6
CONTINUOUS
  62
      9
100
AcDbVertex
100
AcDb2dVertex
  10
-22.08417
  20
31.85085
  30
0.0
   0
VERTEX
   5
606
100
AcDbEntity
   8
TITLEBLOCK
   6
CONTINUOUS
  62
      9
100
AcDbVertex
100
AcDb2dVertex
  10
-22.02167
  20
30.85085
  30
0.0
   0
VERTEX
   5
607
100
AcDbEntity
   8
TITLEBLOCK
   6
CONTINUOUS
  62
      9
100
AcDbVertex
100
AcDb2dVertex
  10
-21.95917
  20
30.9591
  30
0.0
   0
SEQEND
   5
608
100
AcDbEntity
   8
TITLEBLOCK
   6
CONTINUOUS
   0
POLYLINE
   5
609
100
AcDbEntity
   8
TITLEBLOCK
   6
CONTINUOUS
  62
      9
100
AcDb2dPolyline
  66
      1
  10
0.0
  20
0.0
  30
0.0
  70
      1
  75
      5
   0
VERTEX
   5
60A
100
AcDbEntity
   8
TITLEBLOCK
   6
CONTINUOUS
  62
      9
100
AcDbVertex
100
AcDb2dVertex
  10
-22.02167
  20
30.85085
  30
0.0
   0
VERTEX
   5
60B
100
AcDbEntity
   8
TITLEBLOCK
   6
CONTINUOUS
  62
      9
100
AcDbVertex
100
AcDb2dVertex
  10
-22.08417
  20
30.9591
  30
0.0
   0
VERTEX
   5
60C
100
AcDbEntity
   8
TITLEBLOCK
   6
CONTINUOUS
  62
      9
100
AcDbVertex
100
AcDb2dVertex
  10
-22.14667
  20
31.74259
  30
0.0
   0
VERTEX
   5
60D
100
AcDbEntity
   8
TITLEBLOCK
   6
CONTINUOUS
  62
      9
100
AcDbVertex
100
AcDb2dVertex
  10
-22.08417
  20
31.85084
  30
0.0
   0
SEQEND
   5
60E
100
AcDbEntity
   8
TITLEBLOCK
   6
CONTINUOUS
   0
POLYLINE
   5
60F
100
AcDbEntity
   8
TITLEBLOCK
   6
CONTINUOUS
  62
      9
100
AcDb2dPolyline
  66
      1
  10
0.0
  20
0.0
  30
0.0
  70
      1
  75
      5
   0
VERTEX
   5
610
100
AcDbEntity
   8
TITLEBLOCK
   6
CONTINUOUS
  62
      9
100
AcDbVertex
100
AcDb2dVertex
  10
-22.14667
  20
31.74259
  30
0.0
   0
VERTEX
   5
611
100
AcDbEntity
   8
TITLEBLOCK
   6
CONTINUOUS
  62
      9
100
AcDbVertex
100
AcDb2dVertex
  10
-22.20917
  20
31.85084
  30
0.0
   0
VERTEX
   5
612
100
AcDbEntity
   8
TITLEBLOCK
   6
CONTINUOUS
  62
      9
100
AcDbVertex
100
AcDb2dVertex
  10
-22.14667
  20
30.85084
  30
0.0
   0
VERTEX
   5
613
100
AcDbEntity
   8
TITLEBLOCK
   6
CONTINUOUS
  62
      9
100
AcDbVertex
100
AcDb2dVertex
  10
-22.08417
  20
30.95909
  30
0.0
   0
SEQEND
   5
614
100
AcDbEntity
   8
TITLEBLOCK
   6
CONTINUOUS
   0
POLYLINE
   5
615
100
AcDbEntity
   8
TITLEBLOCK
   6
CONTINUOUS
  62
      9
100
AcDb2dPolyline
  66
      1
  10
0.0
  20
0.0
  30
0.0
  70
      1
  75
      5
   0
VERTEX
   5
616
100
AcDbEntity
   8
TITLEBLOCK
   6
CONTINUOUS
  62
      9
100
AcDbVertex
100
AcDb2dVertex
  10
-22.14667
  20
30.85084
  30
0.0
   0
VERTEX
   5
617
100
AcDbEntity
   8
TITLEBLOCK
   6
CONTINUOUS
  62
      9
100
AcDbVertex
100
AcDb2dVertex
  10
-22.20917
  20
30.95909
  30
0.0
   0
VERTEX
   5
618
100
AcDbEntity
   8
TITLEBLOCK
   6
CONTINUOUS
  62
      9
100
AcDbVertex
100
AcDb2dVertex
  10
-22.27167
  20
31.74258
  30
0.0
   0
VERTEX
   5
619
100
AcDbEntity
   8
TITLEBLOCK
   6
CONTINUOUS
  62
      9
100
AcDbVertex
100
AcDb2dVertex
  10
-22.20917
  20
31.85083
  30
0.0
   0
SEQEND
   5
61A
100
AcDbEntity
   8
TITLEBLOCK
   6
CONTINUOUS
   0
POLYLINE
   5
61B
100
AcDbEntity
   8
TITLEBLOCK
   6
CONTINUOUS
  62
      9
100
AcDb2dPolyline
  66
      1
  10
0.0
  20
0.0
  30
0.0
  70
      1
  75
      5
   0
VERTEX
   5
61C
100
AcDbEntity
   8
TITLEBLOCK
   6
CONTINUOUS
  62
      9
100
AcDbVertex
100
AcDb2dVertex
  10
-22.27167
  20
31.74258
  30
0.0
   0
VERTEX
   5
61D
100
AcDbEntity
   8
TITLEBLOCK
   6
CONTINUOUS
  62
      9
100
AcDbVertex
100
AcDb2dVertex
  10
-22.33417
  20
31.85083
  30
0.0
   0
VERTEX
   5
61E
100
AcDbEntity
   8
TITLEBLOCK
   6
CONTINUOUS
  62
      9
100
AcDbVertex
100
AcDb2dVertex
  10
-22.27167
  20
30.85083
  30
0.0
   0
VERTEX
   5
61F
100
AcDbEntity
   8
TITLEBLOCK
   6
CONTINUOUS
  62
      9
100
AcDbVertex
100
AcDb2dVertex
  10
-22.20917
  20
30.95908
  30
0.0
   0
SEQEND
   5
620
100
AcDbEntity
   8
TITLEBLOCK
   6
CONTINUOUS
   0
POLYLINE
   5
621
100
AcDbEntity
   8
TITLEBLOCK
   6
CONTINUOUS
  62
      9
100
AcDb2dPolyline
  66
      1
  10
0.0
  20
0.0
  30
0.0
  70
      1
  75
      5
   0
VERTEX
   5
622
100
AcDbEntity
   8
TITLEBLOCK
   6
CONTINUOUS
  62
      9
100
AcDbVertex
100
AcDb2dVertex
  10
-22.27167
  20
30.85083
  30
0.0
   0
VERTEX
   5
623
100
AcDbEntity
   8
TITLEBLOCK
   6
CONTINUOUS
  62
      9
100
AcDbVertex
100
AcDb2dVertex
  10
-22.33417
  20
30.95908
  30
0.0
   0
VERTEX
   5
624
100
AcDbEntity
   8
TITLEBLOCK
   6
CONTINUOUS
  62
      9
100
AcDbVertex
100
AcDb2dVertex
  10
-22.39667
  20
31.74257
  30
0.0
   0
VERTEX
   5
625
100
AcDbEntity
   8
TITLEBLOCK
   6
CONTINUOUS
  62
      9
100
AcDbVertex
100
AcDb2dVertex
  10
-22.33417
  20
31.85082
  30
0.0
   0
SEQEND
   5
626
100
AcDbEntity
   8
TITLEBLOCK
   6
CONTINUOUS
   0
POLYLINE
   5
627
100
AcDbEntity
   8
TITLEBLOCK
   6
CONTINUOUS
  62
      9
100
AcDb2dPolyline
  66
      1
  10
0.0
  20
0.0
  30
0.0
  70
      1
  75
      5
   0
VERTEX
   5
628
100
AcDbEntity
   8
TITLEBLOCK
   6
CONTINUOUS
  62
      9
100
AcDbVertex
100
AcDb2dVertex
  10
-22.39667
  20
31.74257
  30
0.0
   0
VERTEX
   5
629
100
AcDbEntity
   8
TITLEBLOCK
   6
CONTINUOUS
  62
      9
100
AcDbVertex
100
AcDb2dVertex
  10
-22.45917
  20
31.85082
  30
0.0
   0
VERTEX
   5
62A
100
AcDbEntity
   8
TITLEBLOCK
   6
CONTINUOUS
  62
      9
100
AcDbVertex
100
AcDb2dVertex
  10
-22.39667
  20
30.85082
  30
0.0
   0
VERTEX
   5
62B
100
AcDbEntity
   8
TITLEBLOCK
   6
CONTINUOUS
  62
      9
100
AcDbVertex
100
AcDb2dVertex
  10
-22.33417
  20
30.95907
  30
0.0
   0
SEQEND
   5
62C
100
AcDbEntity
   8
TITLEBLOCK
   6
CONTINUOUS
   0
POLYLINE
   5
62D
100
AcDbEntity
   8
TITLEBLOCK
   6
CONTINUOUS
  62
      9
100
AcDb2dPolyline
  66
      1
  10
0.0
  20
0.0
  30
0.0
  70
      1
  75
      5
   0
VERTEX
   5
62E
100
AcDbEntity
   8
TITLEBLOCK
   6
CONTINUOUS
  62
      9
100
AcDbVertex
100
AcDb2dVertex
  10
-22.39667
  20
30.85082
  30
0.0
   0
VERTEX
   5
62F
100
AcDbEntity
   8
TITLEBLOCK
   6
CONTINUOUS
  62
      9
100
AcDbVertex
100
AcDb2dVertex
  10
-22.45917
  20
30.95907
  30
0.0
   0
VERTEX
   5
630
100
AcDbEntity
   8
TITLEBLOCK
   6
CONTINUOUS
  62
      9
100
AcDbVertex
100
AcDb2dVertex
  10
-22.52167
  20
31.74256
  30
0.0
   0
VERTEX
   5
631
100
AcDbEntity
   8
TITLEBLOCK
   6
CONTINUOUS
  62
      9
100
AcDbVertex
100
AcDb2dVertex
  10
-22.45917
  20
31.85081
  30
0.0
   0
SEQEND
   5
632
100
AcDbEntity
   8
TITLEBLOCK
   6
CONTINUOUS
   0
POLYLINE
   5
633
100
AcDbEntity
   8
TITLEBLOCK
   6
CONTINUOUS
  62
      9
100
AcDb2dPolyline
  66
      1
  10
0.0
  20
0.0
  30
0.0
  70
      1
  75
      5
   0
VERTEX
   5
634
100
AcDbEntity
   8
TITLEBLOCK
   6
CONTINUOUS
  62
      9
100
AcDbVertex
100
AcDb2dVertex
  10
-22.52167
  20
31.74256
  30
0.0
   0
VERTEX
   5
635
100
AcDbEntity
   8
TITLEBLOCK
   6
CONTINUOUS
  62
      9
100
AcDbVertex
100
AcDb2dVertex
  10
-22.58417
  20
31.85081
  30
0.0
   0
VERTEX
   5
636
100
AcDbEntity
   8
TITLEBLOCK
   6
CONTINUOUS
  62
      9
100
AcDbVertex
100
AcDb2dVertex
  10
-22.52167
  20
30.85081
  30
0.0
   0
VERTEX
   5
637
100
AcDbEntity
   8
TITLEBLOCK
   6
CONTINUOUS
  62
      9
100
AcDbVertex
100
AcDb2dVertex
  10
-22.45917
  20
30.95906
  30
0.0
   0
SEQEND
   5
638
100
AcDbEntity
   8
TITLEBLOCK
   6
CONTINUOUS
   0
POLYLINE
   5
639
100
AcDbEntity
   8
TITLEBLOCK
   6
CONTINUOUS
  62
      9
100
AcDb2dPolyline
  66
      1
  10
0.0
  20
0.0
  30
0.0
  70
      1
  75
      5
   0
VERTEX
   5
63A
100
AcDbEntity
   8
TITLEBLOCK
   6
CONTINUOUS
  62
      9
100
AcDbVertex
100
AcDb2dVertex
  10
-22.52167
  20
30.85081
  30
0.0
   0
VERTEX
   5
63B
100
AcDbEntity
   8
TITLEBLOCK
   6
CONTINUOUS
  62
      9
100
AcDbVertex
100
AcDb2dVertex
  10
-22.58417
  20
30.95906
  30
0.0
   0
VERTEX
   5
63C
100
AcDbEntity
   8
TITLEBLOCK
   6
CONTINUOUS
  62
      9
100
AcDbVertex
100
AcDb2dVertex
  10
-22.64667
  20
31.74255
  30
0.0
   0
VERTEX
   5
63D
100
AcDbEntity
   8
TITLEBLOCK
   6
CONTINUOUS
  62
      9
100
AcDbVertex
100
AcDb2dVertex
  10
-22.58417
  20
31.8508
  30
0.0
   0
SEQEND
   5
63E
100
AcDbEntity
   8
TITLEBLOCK
   6
CONTINUOUS
   0
POLYLINE
   5
63F
100
AcDbEntity
   8
TITLEBLOCK
   6
CONTINUOUS
  62
      9
100
AcDb2dPolyline
  66
      1
  10
0.0
  20
0.0
  30
0.0
  70
      1
  75
      5
   0
VERTEX
   5
640
100
AcDbEntity
   8
TITLEBLOCK
   6
CONTINUOUS
  62
      9
100
AcDbVertex
100
AcDb2dVertex
  10
-22.64667
  20
31.74255
  30
0.0
   0
VERTEX
   5
641
100
AcDbEntity
   8
TITLEBLOCK
   6
CONTINUOUS
  62
      9
100
AcDbVertex
100
AcDb2dVertex
  10
-22.70917
  20
31.8508
  30
0.0
   0
VERTEX
   5
642
100
AcDbEntity
   8
TITLEBLOCK
   6
CONTINUOUS
  62
      9
100
AcDbVertex
100
AcDb2dVertex
  10
-22.64667
  20
30.8508
  30
0.0
   0
VERTEX
   5
643
100
AcDbEntity
   8
TITLEBLOCK
   6
CONTINUOUS
  62
      9
100
AcDbVertex
100
AcDb2dVertex
  10
-22.58417
  20
30.95905
  30
0.0
   0
SEQEND
   5
644
100
AcDbEntity
   8
TITLEBLOCK
   6
CONTINUOUS
   0
POLYLINE
   5
645
100
AcDbEntity
   8
TITLEBLOCK
   6
CONTINUOUS
  62
      9
100
AcDb2dPolyline
  66
      1
  10
0.0
  20
0.0
  30
0.0
  70
      1
  75
      5
   0
VERTEX
   5
646
100
AcDbEntity
   8
TITLEBLOCK
   6
CONTINUOUS
  62
      9
100
AcDbVertex
100
AcDb2dVertex
  10
-22.64667
  20
30.8508
  30
0.0
   0
VERTEX
   5
647
100
AcDbEntity
   8
TITLEBLOCK
   6
CONTINUOUS
  62
      9
100
AcDbVertex
100
AcDb2dVertex
  10
-22.70917
  20
30.95905
  30
0.0
   0
VERTEX
   5
648
100
AcDbEntity
   8
TITLEBLOCK
   6
CONTINUOUS
  62
      9
100
AcDbVertex
100
AcDb2dVertex
  10
-22.77167
  20
31.74254
  30
0.0
   0
VERTEX
   5
649
100
AcDbEntity
   8
TITLEBLOCK
   6
CONTINUOUS
  62
      9
100
AcDbVertex
100
AcDb2dVertex
  10
-22.70917
  20
31.85079
  30
0.0
   0
SEQEND
   5
64A
100
AcDbEntity
   8
TITLEBLOCK
   6
CONTINUOUS
   0
POLYLINE
   5
64B
100
AcDbEntity
   8
TITLEBLOCK
   6
CONTINUOUS
  62
      9
100
AcDb2dPolyline
  66
      1
  10
0.0
  20
0.0
  30
0.0
  70
      1
  75
      5
   0
VERTEX
   5
64C
100
AcDbEntity
   8
TITLEBLOCK
   6
CONTINUOUS
  62
      9
100
AcDbVertex
100
AcDb2dVertex
  10
-22.77167
  20
31.74254
  30
0.0
   0
VERTEX
   5
64D
100
AcDbEntity
   8
TITLEBLOCK
   6
CONTINUOUS
  62
      9
100
AcDbVertex
100
AcDb2dVertex
  10
-22.83417
  20
31.85079
  30
0.0
   0
VERTEX
   5
64E
100
AcDbEntity
   8
TITLEBLOCK
   6
CONTINUOUS
  62
      9
100
AcDbVertex
100
AcDb2dVertex
  10
-22.77167
  20
30.85079
  30
0.0
   0
VERTEX
   5
64F
100
AcDbEntity
   8
TITLEBLOCK
   6
CONTINUOUS
  62
      9
100
AcDbVertex
100
AcDb2dVertex
  10
-22.70917
  20
30.95904
  30
0.0
   0
SEQEND
   5
650
100
AcDbEntity
   8
TITLEBLOCK
   6
CONTINUOUS
   0
POLYLINE
   5
651
100
AcDbEntity
   8
TITLEBLOCK
   6
CONTINUOUS
  62
      9
100
AcDb2dPolyline
  66
      1
  10
0.0
  20
0.0
  30
0.0
  70
      1
  75
      5
   0
VERTEX
   5
652
100
AcDbEntity
   8
TITLEBLOCK
   6
CONTINUOUS
  62
      9
100
AcDbVertex
100
AcDb2dVertex
  10
-22.77167
  20
30.85079
  30
0.0
   0
VERTEX
   5
653
100
AcDbEntity
   8
TITLEBLOCK
   6
CONTINUOUS
  62
      9
100
AcDbVertex
100
AcDb2dVertex
  10
-22.83417
  20
30.95904
  30
0.0
   0
VERTEX
   5
654
100
AcDbEntity
   8
TITLEBLOCK
   6
CONTINUOUS
  62
      9
100
AcDbVertex
100
AcDb2dVertex
  10
-22.89667
  20
31.74253
  30
0.0
   0
VERTEX
   5
655
100
AcDbEntity
   8
TITLEBLOCK
   6
CONTINUOUS
  62
      9
100
AcDbVertex
100
AcDb2dVertex
  10
-22.83417
  20
31.85078
  30
0.0
   0
SEQEND
   5
656
100
AcDbEntity
   8
TITLEBLOCK
   6
CONTINUOUS
   0
POLYLINE
   5
657
100
AcDbEntity
   8
TITLEBLOCK
   6
CONTINUOUS
  62
      9
100
AcDb2dPolyline
  66
      1
  10
0.0
  20
0.0
  30
0.0
  70
      1
  75
      5
   0
VERTEX
   5
658
100
AcDbEntity
   8
TITLEBLOCK
   6
CONTINUOUS
  62
      9
100
AcDbVertex
100
AcDb2dVertex
  10
-22.89667
  20
31.74253
  30
0.0
   0
VERTEX
   5
659
100
AcDbEntity
   8
TITLEBLOCK
   6
CONTINUOUS
  62
      9
100
AcDbVertex
100
AcDb2dVertex
  10
-22.95917
  20
31.85078
  30
0.0
   0
VERTEX
   5
65A
100
AcDbEntity
   8
TITLEBLOCK
   6
CONTINUOUS
  62
      9
100
AcDbVertex
100
AcDb2dVertex
  10
-22.89667
  20
30.85078
  30
0.0
   0
VERTEX
   5
65B
100
AcDbEntity
   8
TITLEBLOCK
   6
CONTINUOUS
  62
      9
100
AcDbVertex
100
AcDb2dVertex
  10
-22.83417
  20
30.95903
  30
0.0
   0
SEQEND
   5
65C
100
AcDbEntity
   8
TITLEBLOCK
   6
CONTINUOUS
   0
POLYLINE
   5
65D
100
AcDbEntity
   8
TITLEBLOCK
   6
CONTINUOUS
  62
      9
100
AcDb2dPolyline
  66
      1
  10
0.0
  20
0.0
  30
0.0
  70
      1
  75
      5
   0
VERTEX
   5
65E
100
AcDbEntity
   8
TITLEBLOCK
   6
CONTINUOUS
  62
      9
100
AcDbVertex
100
AcDb2dVertex
  10
-22.89667
  20
30.85078
  30
0.0
   0
VERTEX
   5
65F
100
AcDbEntity
   8
TITLEBLOCK
   6
CONTINUOUS
  62
      9
100
AcDbVertex
100
AcDb2dVertex
  10
-22.95917
  20
30.95903
  30
0.0
   0
VERTEX
   5
660
100
AcDbEntity
   8
TITLEBLOCK
   6
CONTINUOUS
  62
      9
100
AcDbVertex
100
AcDb2dVertex
  10
-23.02167
  20
31.74252
  30
0.0
   0
VERTEX
   5
661
100
AcDbEntity
   8
TITLEBLOCK
   6
CONTINUOUS
  62
      9
100
AcDbVertex
100
AcDb2dVertex
  10
-22.95917
  20
31.85077
  30
0.0
   0
SEQEND
   5
662
100
AcDbEntity
   8
TITLEBLOCK
   6
CONTINUOUS
   0
POLYLINE
   5
663
100
AcDbEntity
   8
TITLEBLOCK
   6
CONTINUOUS
  62
      9
100
AcDb2dPolyline
  66
      1
  10
0.0
  20
0.0
  30
0.0
  70
      1
  75
      5
   0
VERTEX
   5
664
100
AcDbEntity
   8
TITLEBLOCK
   6
CONTINUOUS
  62
      9
100
AcDbVertex
100
AcDb2dVertex
  10
-23.02167
  20
31.74252
  30
0.0
   0
VERTEX
   5
665
100
AcDbEntity
   8
TITLEBLOCK
   6
CONTINUOUS
  62
      9
100
AcDbVertex
100
AcDb2dVertex
  10
-23.08417
  20
31.85077
  30
0.0
   0
VERTEX
   5
666
100
AcDbEntity
   8
TITLEBLOCK
   6
CONTINUOUS
  62
      9
100
AcDbVertex
100
AcDb2dVertex
  10
-23.02167
  20
30.85077
  30
0.0
   0
VERTEX
   5
667
100
AcDbEntity
   8
TITLEBLOCK
   6
CONTINUOUS
  62
      9
100
AcDbVertex
100
AcDb2dVertex
  10
-22.95917
  20
30.95902
  30
0.0
   0
SEQEND
   5
668
100
AcDbEntity
   8
TITLEBLOCK
   6
CONTINUOUS
   0
POLYLINE
   5
669
100
AcDbEntity
   8
TITLEBLOCK
   6
CONTINUOUS
  62
      9
100
AcDb2dPolyline
  66
      1
  10
0.0
  20
0.0
  30
0.0
  70
      1
  75
      5
   0
VERTEX
   5
66A
100
AcDbEntity
   8
TITLEBLOCK
   6
CONTINUOUS
  62
      9
100
AcDbVertex
100
AcDb2dVertex
  10
-23.02167
  20
30.85077
  30
0.0
   0
VERTEX
   5
66B
100
AcDbEntity
   8
TITLEBLOCK
   6
CONTINUOUS
  62
      9
100
AcDbVertex
100
AcDb2dVertex
  10
-23.08417
  20
30.95902
  30
0.0
   0
VERTEX
   5
66C
100
AcDbEntity
   8
TITLEBLOCK
   6
CONTINUOUS
  62
      9
100
AcDbVertex
100
AcDb2dVertex
  10
-23.14667
  20
31.74251
  30
0.0
   0
VERTEX
   5
66D
100
AcDbEntity
   8
TITLEBLOCK
   6
CONTINUOUS
  62
      9
100
AcDbVertex
100
AcDb2dVertex
  10
-23.08417
  20
31.85076
  30
0.0
   0
SEQEND
   5
66E
100
AcDbEntity
   8
TITLEBLOCK
   6
CONTINUOUS
   0
POLYLINE
   5
66F
100
AcDbEntity
   8
TITLEBLOCK
   6
CONTINUOUS
  62
      9
100
AcDb2dPolyline
  66
      1
  10
0.0
  20
0.0
  30
0.0
  70
      1
  75
      5
   0
VERTEX
   5
670
100
AcDbEntity
   8
TITLEBLOCK
   6
CONTINUOUS
  62
      9
100
AcDbVertex
100
AcDb2dVertex
  10
-23.14667
  20
31.74251
  30
0.0
   0
VERTEX
   5
671
100
AcDbEntity
   8
TITLEBLOCK
   6
CONTINUOUS
  62
      9
100
AcDbVertex
100
AcDb2dVertex
  10
-23.20917
  20
31.85076
  30
0.0
   0
VERTEX
   5
672
100
AcDbEntity
   8
TITLEBLOCK
   6
CONTINUOUS
  62
      9
100
AcDbVertex
100
AcDb2dVertex
  10
-23.14667
  20
30.85076
  30
0.0
   0
VERTEX
   5
673
100
AcDbEntity
   8
TITLEBLOCK
   6
CONTINUOUS
  62
      9
100
AcDbVertex
100
AcDb2dVertex
  10
-23.08417
  20
30.95901
  30
0.0
   0
SEQEND
   5
674
100
AcDbEntity
   8
TITLEBLOCK
   6
CONTINUOUS
   0
POLYLINE
   5
675
100
AcDbEntity
   8
TITLEBLOCK
   6
CONTINUOUS
  62
      9
100
AcDb2dPolyline
  66
      1
  10
0.0
  20
0.0
  30
0.0
  70
      1
  75
      5
   0
VERTEX
   5
676
100
AcDbEntity
   8
TITLEBLOCK
   6
CONTINUOUS
  62
      9
100
AcDbVertex
100
AcDb2dVertex
  10
-23.14667
  20
30.85076
  30
0.0
   0
VERTEX
   5
677
100
AcDbEntity
   8
TITLEBLOCK
   6
CONTINUOUS
  62
      9
100
AcDbVertex
100
AcDb2dVertex
  10
-23.20917
  20
30.95901
  30
0.0
   0
VERTEX
   5
678
100
AcDbEntity
   8
TITLEBLOCK
   6
CONTINUOUS
  62
      9
100
AcDbVertex
100
AcDb2dVertex
  10
-23.27167
  20
31.7425
  30
0.0
   0
VERTEX
   5
679
100
AcDbEntity
   8
TITLEBLOCK
   6
CONTINUOUS
  62
      9
100
AcDbVertex
100
AcDb2dVertex
  10
-23.20917
  20
31.85075
  30
0.0
   0
SEQEND
   5
67A
100
AcDbEntity
   8
TITLEBLOCK
   6
CONTINUOUS
   0
POLYLINE
   5
67B
100
AcDbEntity
   8
TITLEBLOCK
   6
CONTINUOUS
  62
      9
100
AcDb2dPolyline
  66
      1
  10
0.0
  20
0.0
  30
0.0
  70
      1
  75
      5
   0
VERTEX
   5
67C
100
AcDbEntity
   8
TITLEBLOCK
   6
CONTINUOUS
  62
      9
100
AcDbVertex
100
AcDb2dVertex
  10
-23.27167
  20
31.7425
  30
0.0
   0
VERTEX
   5
67D
100
AcDbEntity
   8
TITLEBLOCK
   6
CONTINUOUS
  62
      9
100
AcDbVertex
100
AcDb2dVertex
  10
-23.33417
  20
31.85075
  30
0.0
   0
VERTEX
   5
67E
100
AcDbEntity
   8
TITLEBLOCK
   6
CONTINUOUS
  62
      9
100
AcDbVertex
100
AcDb2dVertex
  10
-23.27167
  20
30.85075
  30
0.0
   0
VERTEX
   5
67F
100
AcDbEntity
   8
TITLEBLOCK
   6
CONTINUOUS
  62
      9
100
AcDbVertex
100
AcDb2dVertex
  10
-23.20917
  20
30.959
  30
0.0
   0
SEQEND
   5
680
100
AcDbEntity
   8
TITLEBLOCK
   6
CONTINUOUS
   0
POLYLINE
   5
681
100
AcDbEntity
   8
TITLEBLOCK
   6
CONTINUOUS
  62
      9
100
AcDb2dPolyline
  66
      1
  10
0.0
  20
0.0
  30
0.0
  70
      1
  75
      5
   0
VERTEX
   5
682
100
AcDbEntity
   8
TITLEBLOCK
   6
CONTINUOUS
  62
      9
100
AcDbVertex
100
AcDb2dVertex
  10
-23.27167
  20
30.85075
  30
0.0
   0
VERTEX
   5
683
100
AcDbEntity
   8
TITLEBLOCK
   6
CONTINUOUS
  62
      9
100
AcDbVertex
100
AcDb2dVertex
  10
-23.33417
  20
30.959
  30
0.0
   0
VERTEX
   5
684
100
AcDbEntity
   8
TITLEBLOCK
   6
CONTINUOUS
  62
      9
100
AcDbVertex
100
AcDb2dVertex
  10
-23.39667
  20
31.74249
  30
0.0
   0
VERTEX
   5
685
100
AcDbEntity
   8
TITLEBLOCK
   6
CONTINUOUS
  62
      9
100
AcDbVertex
100
AcDb2dVertex
  10
-23.33417
  20
31.85074
  30
0.0
   0
SEQEND
   5
686
100
AcDbEntity
   8
TITLEBLOCK
   6
CONTINUOUS
   0
POLYLINE
   5
687
100
AcDbEntity
   8
TITLEBLOCK
   6
CONTINUOUS
  62
      9
100
AcDb2dPolyline
  66
      1
  10
0.0
  20
0.0
  30
0.0
  70
      1
  75
      5
   0
VERTEX
   5
688
100
AcDbEntity
   8
TITLEBLOCK
   6
CONTINUOUS
  62
      9
100
AcDbVertex
100
AcDb2dVertex
  10
-23.39667
  20
31.74249
  30
0.0
   0
VERTEX
   5
689
100
AcDbEntity
   8
TITLEBLOCK
   6
CONTINUOUS
  62
      9
100
AcDbVertex
100
AcDb2dVertex
  10
-23.45917
  20
31.85074
  30
0.0
   0
VERTEX
   5
68A
100
AcDbEntity
   8
TITLEBLOCK
   6
CONTINUOUS
  62
      9
100
AcDbVertex
100
AcDb2dVertex
  10
-23.39667
  20
30.85074
  30
0.0
   0
VERTEX
   5
68B
100
AcDbEntity
   8
TITLEBLOCK
   6
CONTINUOUS
  62
      9
100
AcDbVertex
100
AcDb2dVertex
  10
-23.33417
  20
30.95899
  30
0.0
   0
SEQEND
   5
68C
100
AcDbEntity
   8
TITLEBLOCK
   6
CONTINUOUS
   0
POLYLINE
   5
68D
100
AcDbEntity
   8
TITLEBLOCK
   6
CONTINUOUS
  62
      9
100
AcDb2dPolyline
  66
      1
  10
0.0
  20
0.0
  30
0.0
  70
      1
  75
      5
   0
VERTEX
   5
68E
100
AcDbEntity
   8
TITLEBLOCK
   6
CONTINUOUS
  62
      9
100
AcDbVertex
100
AcDb2dVertex
  10
-23.39667
  20
30.85074
  30
0.0
   0
VERTEX
   5
68F
100
AcDbEntity
   8
TITLEBLOCK
   6
CONTINUOUS
  62
      9
100
AcDbVertex
100
AcDb2dVertex
  10
-23.45917
  20
30.95899
  30
0.0
   0
VERTEX
   5
690
100
AcDbEntity
   8
TITLEBLOCK
   6
CONTINUOUS
  62
      9
100
AcDbVertex
100
AcDb2dVertex
  10
-23.52167
  20
31.74248
  30
0.0
   0
VERTEX
   5
691
100
AcDbEntity
   8
TITLEBLOCK
   6
CONTINUOUS
  62
      9
100
AcDbVertex
100
AcDb2dVertex
  10
-23.45917
  20
31.85073
  30
0.0
   0
SEQEND
   5
692
100
AcDbEntity
   8
TITLEBLOCK
   6
CONTINUOUS
   0
POLYLINE
   5
693
100
AcDbEntity
   8
TITLEBLOCK
   6
CONTINUOUS
  62
      9
100
AcDb2dPolyline
  66
      1
  10
0.0
  20
0.0
  30
0.0
  70
      1
  75
      5
   0
VERTEX
   5
694
100
AcDbEntity
   8
TITLEBLOCK
   6
CONTINUOUS
  62
      9
100
AcDbVertex
100
AcDb2dVertex
  10
-23.52167
  20
31.74248
  30
0.0
   0
VERTEX
   5
695
100
AcDbEntity
   8
TITLEBLOCK
   6
CONTINUOUS
  62
      9
100
AcDbVertex
100
AcDb2dVertex
  10
-23.58417
  20
31.85073
  30
0.0
   0
VERTEX
   5
696
100
AcDbEntity
   8
TITLEBLOCK
   6
CONTINUOUS
  62
      9
100
AcDbVertex
100
AcDb2dVertex
  10
-23.52167
  20
30.85073
  30
0.0
   0
VERTEX
   5
697
100
AcDbEntity
   8
TITLEBLOCK
   6
CONTINUOUS
  62
      9
100
AcDbVertex
100
AcDb2dVertex
  10
-23.45917
  20
30.95898
  30
0.0
   0
SEQEND
   5
698
100
AcDbEntity
   8
TITLEBLOCK
   6
CONTINUOUS
   0
POLYLINE
   5
699
100
AcDbEntity
   8
TITLEBLOCK
   6
CONTINUOUS
  62
      9
100
AcDb2dPolyline
  66
      1
  10
0.0
  20
0.0
  30
0.0
  70
      1
  75
      5
   0
VERTEX
   5
69A
100
AcDbEntity
   8
TITLEBLOCK
   6
CONTINUOUS
  62
      9
100
AcDbVertex
100
AcDb2dVertex
  10
-23.52167
  20
30.85073
  30
0.0
   0
VERTEX
   5
69B
100
AcDbEntity
   8
TITLEBLOCK
   6
CONTINUOUS
  62
      9
100
AcDbVertex
100
AcDb2dVertex
  10
-23.58417
  20
30.95898
  30
0.0
   0
VERTEX
   5
69C
100
AcDbEntity
   8
TITLEBLOCK
   6
CONTINUOUS
  62
      9
100
AcDbVertex
100
AcDb2dVertex
  10
-23.64667
  20
31.74247
  30
0.0
   0
VERTEX
   5
69D
100
AcDbEntity
   8
TITLEBLOCK
   6
CONTINUOUS
  62
      9
100
AcDbVertex
100
AcDb2dVertex
  10
-23.58417
  20
31.85072
  30
0.0
   0
SEQEND
   5
69E
100
AcDbEntity
   8
TITLEBLOCK
   6
CONTINUOUS
   0
POLYLINE
   5
69F
100
AcDbEntity
   8
TITLEBLOCK
   6
CONTINUOUS
  62
      9
100
AcDb2dPolyline
  66
      1
  10
0.0
  20
0.0
  30
0.0
  70
      1
  75
      5
   0
VERTEX
   5
6A0
100
AcDbEntity
   8
TITLEBLOCK
   6
CONTINUOUS
  62
      9
100
AcDbVertex
100
AcDb2dVertex
  10
-23.64667
  20
31.74247
  30
0.0
   0
VERTEX
   5
6A1
100
AcDbEntity
   8
TITLEBLOCK
   6
CONTINUOUS
  62
      9
100
AcDbVertex
100
AcDb2dVertex
  10
-23.70917
  20
31.85072
  30
0.0
   0
VERTEX
   5
6A2
100
AcDbEntity
   8
TITLEBLOCK
   6
CONTINUOUS
  62
      9
100
AcDbVertex
100
AcDb2dVertex
  10
-23.64667
  20
30.85072
  30
0.0
   0
VERTEX
   5
6A3
100
AcDbEntity
   8
TITLEBLOCK
   6
CONTINUOUS
  62
      9
100
AcDbVertex
100
AcDb2dVertex
  10
-23.58417
  20
30.95897
  30
0.0
   0
SEQEND
   5
6A4
100
AcDbEntity
   8
TITLEBLOCK
   6
CONTINUOUS
   0
POLYLINE
   5
6A5
100
AcDbEntity
   8
TITLEBLOCK
   6
CONTINUOUS
  62
      9
100
AcDb2dPolyline
  66
      1
  10
0.0
  20
0.0
  30
0.0
  70
      1
  75
      5
   0
VERTEX
   5
6A6
100
AcDbEntity
   8
TITLEBLOCK
   6
CONTINUOUS
  62
      9
100
AcDbVertex
100
AcDb2dVertex
  10
-23.64667
  20
30.85072
  30
0.0
   0
VERTEX
   5
6A7
100
AcDbEntity
   8
TITLEBLOCK
   6
CONTINUOUS
  62
      9
100
AcDbVertex
100
AcDb2dVertex
  10
-23.70917
  20
30.95897
  30
0.0
   0
VERTEX
   5
6A8
100
AcDbEntity
   8
TITLEBLOCK
   6
CONTINUOUS
  62
      9
100
AcDbVertex
100
AcDb2dVertex
  10
-23.77167
  20
31.74246
  30
0.0
   0
VERTEX
   5
6A9
100
AcDbEntity
   8
TITLEBLOCK
   6
CONTINUOUS
  62
      9
100
AcDbVertex
100
AcDb2dVertex
  10
-23.70917
  20
31.85071
  30
0.0
   0
SEQEND
   5
6AA
100
AcDbEntity
   8
TITLEBLOCK
   6
CONTINUOUS
   0
POLYLINE
   5
6AB
100
AcDbEntity
   8
TITLEBLOCK
   6
CONTINUOUS
  62
      9
100
AcDb2dPolyline
  66
      1
  10
0.0
  20
0.0
  30
0.0
  70
      1
  75
      5
   0
VERTEX
   5
6AC
100
AcDbEntity
   8
TITLEBLOCK
   6
CONTINUOUS
  62
      9
100
AcDbVertex
100
AcDb2dVertex
  10
-23.77167
  20
31.74246
  30
0.0
   0
VERTEX
   5
6AD
100
AcDbEntity
   8
TITLEBLOCK
   6
CONTINUOUS
  62
      9
100
AcDbVertex
100
AcDb2dVertex
  10
-23.83417
  20
31.85071
  30
0.0
   0
VERTEX
   5
6AE
100
AcDbEntity
   8
TITLEBLOCK
   6
CONTINUOUS
  62
      9
100
AcDbVertex
100
AcDb2dVertex
  10
-23.77167
  20
30.85071
  30
0.0
   0
VERTEX
   5
6AF
100
AcDbEntity
   8
TITLEBLOCK
   6
CONTINUOUS
  62
      9
100
AcDbVertex
100
AcDb2dVertex
  10
-23.70917
  20
30.95896
  30
0.0
   0
SEQEND
   5
6B0
100
AcDbEntity
   8
TITLEBLOCK
   6
CONTINUOUS
   0
POLYLINE
   5
6B1
100
AcDbEntity
   8
TITLEBLOCK
   6
CONTINUOUS
  62
      9
100
AcDb2dPolyline
  66
      1
  10
0.0
  20
0.0
  30
0.0
  70
      1
  75
      5
   0
VERTEX
   5
6B2
100
AcDbEntity
   8
TITLEBLOCK
   6
CONTINUOUS
  62
      9
100
AcDbVertex
100
AcDb2dVertex
  10
-23.77167
  20
30.85071
  30
0.0
   0
VERTEX
   5
6B3
100
AcDbEntity
   8
TITLEBLOCK
   6
CONTINUOUS
  62
      9
100
AcDbVertex
100
AcDb2dVertex
  10
-23.83417
  20
30.95896
  30
0.0
   0
VERTEX
   5
6B4
100
AcDbEntity
   8
TITLEBLOCK
   6
CONTINUOUS
  62
      9
100
AcDbVertex
100
AcDb2dVertex
  10
-23.89667
  20
31.74245
  30
0.0
   0
VERTEX
   5
6B5
100
AcDbEntity
   8
TITLEBLOCK
   6
CONTINUOUS
  62
      9
100
AcDbVertex
100
AcDb2dVertex
  10
-23.83417
  20
31.8507
  30
0.0
   0
SEQEND
   5
6B6
100
AcDbEntity
   8
TITLEBLOCK
   6
CONTINUOUS
   0
POLYLINE
   5
6B7
100
AcDbEntity
   8
TITLEBLOCK
   6
CONTINUOUS
  62
      9
100
AcDb2dPolyline
  66
      1
  10
0.0
  20
0.0
  30
0.0
  70
      1
  75
      5
   0
VERTEX
   5
6B8
100
AcDbEntity
   8
TITLEBLOCK
   6
CONTINUOUS
  62
      9
100
AcDbVertex
100
AcDb2dVertex
  10
-23.89667
  20
31.74245
  30
0.0
   0
VERTEX
   5
6B9
100
AcDbEntity
   8
TITLEBLOCK
   6
CONTINUOUS
  62
      9
100
AcDbVertex
100
AcDb2dVertex
  10
-23.95917
  20
31.8507
  30
0.0
   0
VERTEX
   5
6BA
100
AcDbEntity
   8
TITLEBLOCK
   6
CONTINUOUS
  62
      9
100
AcDbVertex
100
AcDb2dVertex
  10
-23.89667
  20
30.8507
  30
0.0
   0
VERTEX
   5
6BB
100
AcDbEntity
   8
TITLEBLOCK
   6
CONTINUOUS
  62
      9
100
AcDbVertex
100
AcDb2dVertex
  10
-23.83417
  20
30.95895
  30
0.0
   0
SEQEND
   5
6BC
100
AcDbEntity
   8
TITLEBLOCK
   6
CONTINUOUS
   0
POLYLINE
   5
6BD
100
AcDbEntity
   8
TITLEBLOCK
   6
CONTINUOUS
  62
      9
100
AcDb2dPolyline
  66
      1
  10
0.0
  20
0.0
  30
0.0
  70
      1
  75
      5
   0
VERTEX
   5
6BE
100
AcDbEntity
   8
TITLEBLOCK
   6
CONTINUOUS
  62
      9
100
AcDbVertex
100
AcDb2dVertex
  10
-23.89667
  20
30.8507
  30
0.0
   0
VERTEX
   5
6BF
100
AcDbEntity
   8
TITLEBLOCK
   6
CONTINUOUS
  62
      9
100
AcDbVertex
100
AcDb2dVertex
  10
-23.95917
  20
30.95895
  30
0.0
   0
VERTEX
   5
6C0
100
AcDbEntity
   8
TITLEBLOCK
   6
CONTINUOUS
  62
      9
100
AcDbVertex
100
AcDb2dVertex
  10
-24.02167
  20
31.74244
  30
0.0
   0
VERTEX
   5
6C1
100
AcDbEntity
   8
TITLEBLOCK
   6
CONTINUOUS
  62
      9
100
AcDbVertex
100
AcDb2dVertex
  10
-23.95917
  20
31.85069
  30
0.0
   0
SEQEND
   5
6C2
100
AcDbEntity
   8
TITLEBLOCK
   6
CONTINUOUS
   0
POLYLINE
   5
6C3
100
AcDbEntity
   8
TITLEBLOCK
   6
CONTINUOUS
  62
      9
100
AcDb2dPolyline
  66
      1
  10
0.0
  20
0.0
  30
0.0
  70
      1
  75
      5
   0
VERTEX
   5
6C4
100
AcDbEntity
   8
TITLEBLOCK
   6
CONTINUOUS
  62
      9
100
AcDbVertex
100
AcDb2dVertex
  10
-24.02167
  20
31.74244
  30
0.0
   0
VERTEX
   5
6C5
100
AcDbEntity
   8
TITLEBLOCK
   6
CONTINUOUS
  62
      9
100
AcDbVertex
100
AcDb2dVertex
  10
-24.08417
  20
31.85069
  30
0.0
   0
VERTEX
   5
6C6
100
AcDbEntity
   8
TITLEBLOCK
   6
CONTINUOUS
  62
      9
100
AcDbVertex
100
AcDb2dVertex
  10
-24.02167
  20
30.85069
  30
0.0
   0
VERTEX
   5
6C7
100
AcDbEntity
   8
TITLEBLOCK
   6
CONTINUOUS
  62
      9
100
AcDbVertex
100
AcDb2dVertex
  10
-23.95917
  20
30.95894
  30
0.0
   0
SEQEND
   5
6C8
100
AcDbEntity
   8
TITLEBLOCK
   6
CONTINUOUS
   0
POLYLINE
   5
6C9
100
AcDbEntity
   8
TITLEBLOCK
   6
CONTINUOUS
  62
      9
100
AcDb2dPolyline
  66
      1
  10
0.0
  20
0.0
  30
0.0
  70
      1
  75
      5
   0
VERTEX
   5
6CA
100
AcDbEntity
   8
TITLEBLOCK
   6
CONTINUOUS
  62
      9
100
AcDbVertex
100
AcDb2dVertex
  10
-24.02167
  20
30.85069
  30
0.0
   0
VERTEX
   5
6CB
100
AcDbEntity
   8
TITLEBLOCK
   6
CONTINUOUS
  62
      9
100
AcDbVertex
100
AcDb2dVertex
  10
-24.08417
  20
30.95894
  30
0.0
   0
VERTEX
   5
6CC
100
AcDbEntity
   8
TITLEBLOCK
   6
CONTINUOUS
  62
      9
100
AcDbVertex
100
AcDb2dVertex
  10
-24.14667
  20
31.74243
  30
0.0
   0
VERTEX
   5
6CD
100
AcDbEntity
   8
TITLEBLOCK
   6
CONTINUOUS
  62
      9
100
AcDbVertex
100
AcDb2dVertex
  10
-24.08417
  20
31.85068
  30
0.0
   0
SEQEND
   5
6CE
100
AcDbEntity
   8
TITLEBLOCK
   6
CONTINUOUS
   0
POLYLINE
   5
6CF
100
AcDbEntity
   8
TITLEBLOCK
   6
CONTINUOUS
  62
      9
100
AcDb2dPolyline
  66
      1
  10
0.0
  20
0.0
  30
0.0
  70
      1
  75
      5
   0
VERTEX
   5
6D0
100
AcDbEntity
   8
TITLEBLOCK
   6
CONTINUOUS
  62
      9
100
AcDbVertex
100
AcDb2dVertex
  10
-24.14667
  20
31.74243
  30
0.0
   0
VERTEX
   5
6D1
100
AcDbEntity
   8
TITLEBLOCK
   6
CONTINUOUS
  62
      9
100
AcDbVertex
100
AcDb2dVertex
  10
-24.20917
  20
31.85068
  30
0.0
   0
VERTEX
   5
6D2
100
AcDbEntity
   8
TITLEBLOCK
   6
CONTINUOUS
  62
      9
100
AcDbVertex
100
AcDb2dVertex
  10
-24.14667
  20
30.85068
  30
0.0
   0
VERTEX
   5
6D3
100
AcDbEntity
   8
TITLEBLOCK
   6
CONTINUOUS
  62
      9
100
AcDbVertex
100
AcDb2dVertex
  10
-24.08417
  20
30.95893
  30
0.0
   0
SEQEND
   5
6D4
100
AcDbEntity
   8
TITLEBLOCK
   6
CONTINUOUS
   0
POLYLINE
   5
6D5
100
AcDbEntity
   8
TITLEBLOCK
   6
CONTINUOUS
  62
      9
100
AcDb2dPolyline
  66
      1
  10
0.0
  20
0.0
  30
0.0
  70
      1
  75
      5
   0
VERTEX
   5
6D6
100
AcDbEntity
   8
TITLEBLOCK
   6
CONTINUOUS
  62
      9
100
AcDbVertex
100
AcDb2dVertex
  10
-24.14667
  20
30.85068
  30
0.0
   0
VERTEX
   5
6D7
100
AcDbEntity
   8
TITLEBLOCK
   6
CONTINUOUS
  62
      9
100
AcDbVertex
100
AcDb2dVertex
  10
-24.20917
  20
30.95893
  30
0.0
   0
VERTEX
   5
6D8
100
AcDbEntity
   8
TITLEBLOCK
   6
CONTINUOUS
  62
      9
100
AcDbVertex
100
AcDb2dVertex
  10
-24.27167
  20
31.74242
  30
0.0
   0
VERTEX
   5
6D9
100
AcDbEntity
   8
TITLEBLOCK
   6
CONTINUOUS
  62
      9
100
AcDbVertex
100
AcDb2dVertex
  10
-24.20917
  20
31.85067
  30
0.0
   0
SEQEND
   5
6DA
100
AcDbEntity
   8
TITLEBLOCK
   6
CONTINUOUS
   0
POLYLINE
   5
6DB
100
AcDbEntity
   8
TITLEBLOCK
   6
CONTINUOUS
  62
      9
100
AcDb2dPolyline
  66
      1
  10
0.0
  20
0.0
  30
0.0
  70
      1
  75
      5
   0
VERTEX
   5
6DC
100
AcDbEntity
   8
TITLEBLOCK
   6
CONTINUOUS
  62
      9
100
AcDbVertex
100
AcDb2dVertex
  10
-24.27167
  20
31.74242
  30
0.0
   0
VERTEX
   5
6DD
100
AcDbEntity
   8
TITLEBLOCK
   6
CONTINUOUS
  62
      9
100
AcDbVertex
100
AcDb2dVertex
  10
-24.33417
  20
31.85067
  30
0.0
   0
VERTEX
   5
6DE
100
AcDbEntity
   8
TITLEBLOCK
   6
CONTINUOUS
  62
      9
100
AcDbVertex
100
AcDb2dVertex
  10
-24.27167
  20
30.85067
  30
0.0
   0
VERTEX
   5
6DF
100
AcDbEntity
   8
TITLEBLOCK
   6
CONTINUOUS
  62
      9
100
AcDbVertex
100
AcDb2dVertex
  10
-24.20917
  20
30.95892
  30
0.0
   0
SEQEND
   5
6E0
100
AcDbEntity
   8
TITLEBLOCK
   6
CONTINUOUS
   0
POLYLINE
   5
6E1
100
AcDbEntity
   8
TITLEBLOCK
   6
CONTINUOUS
  62
      9
100
AcDb2dPolyline
  66
      1
  10
0.0
  20
0.0
  30
0.0
  70
      1
  75
      5
   0
VERTEX
   5
6E2
100
AcDbEntity
   8
TITLEBLOCK
   6
CONTINUOUS
  62
      9
100
AcDbVertex
100
AcDb2dVertex
  10
-24.27167
  20
30.85067
  30
0.0
   0
VERTEX
   5
6E3
100
AcDbEntity
   8
TITLEBLOCK
   6
CONTINUOUS
  62
      9
100
AcDbVertex
100
AcDb2dVertex
  10
-24.33417
  20
30.95892
  30
0.0
   0
VERTEX
   5
6E4
100
AcDbEntity
   8
TITLEBLOCK
   6
CONTINUOUS
  62
      9
100
AcDbVertex
100
AcDb2dVertex
  10
-24.39667
  20
31.74241
  30
0.0
   0
VERTEX
   5
6E5
100
AcDbEntity
   8
TITLEBLOCK
   6
CONTINUOUS
  62
      9
100
AcDbVertex
100
AcDb2dVertex
  10
-24.33417
  20
31.85066
  30
0.0
   0
SEQEND
   5
6E6
100
AcDbEntity
   8
TITLEBLOCK
   6
CONTINUOUS
   0
POLYLINE
   5
6E7
100
AcDbEntity
   8
TITLEBLOCK
   6
CONTINUOUS
  62
      9
100
AcDb2dPolyline
  66
      1
  10
0.0
  20
0.0
  30
0.0
  70
      1
  75
      5
   0
VERTEX
   5
6E8
100
AcDbEntity
   8
TITLEBLOCK
   6
CONTINUOUS
  62
      9
100
AcDbVertex
100
AcDb2dVertex
  10
-24.39667
  20
31.74241
  30
0.0
   0
VERTEX
   5
6E9
100
AcDbEntity
   8
TITLEBLOCK
   6
CONTINUOUS
  62
      9
100
AcDbVertex
100
AcDb2dVertex
  10
-24.45917
  20
31.85066
  30
0.0
   0
VERTEX
   5
6EA
100
AcDbEntity
   8
TITLEBLOCK
   6
CONTINUOUS
  62
      9
100
AcDbVertex
100
AcDb2dVertex
  10
-24.39667
  20
30.85066
  30
0.0
   0
VERTEX
   5
6EB
100
AcDbEntity
   8
TITLEBLOCK
   6
CONTINUOUS
  62
      9
100
AcDbVertex
100
AcDb2dVertex
  10
-24.33417
  20
30.95891
  30
0.0
   0
SEQEND
   5
6EC
100
AcDbEntity
   8
TITLEBLOCK
   6
CONTINUOUS
   0
POLYLINE
   5
6ED
100
AcDbEntity
   8
TITLEBLOCK
   6
CONTINUOUS
  62
      9
100
AcDb2dPolyline
  66
      1
  10
0.0
  20
0.0
  30
0.0
  70
      1
  75
      5
   0
VERTEX
   5
6EE
100
AcDbEntity
   8
TITLEBLOCK
   6
CONTINUOUS
  62
      9
100
AcDbVertex
100
AcDb2dVertex
  10
-24.39667
  20
30.85066
  30
0.0
   0
VERTEX
   5
6EF
100
AcDbEntity
   8
TITLEBLOCK
   6
CONTINUOUS
  62
      9
100
AcDbVertex
100
AcDb2dVertex
  10
-24.45917
  20
30.95891
  30
0.0
   0
VERTEX
   5
6F0
100
AcDbEntity
   8
TITLEBLOCK
   6
CONTINUOUS
  62
      9
100
AcDbVertex
100
AcDb2dVertex
  10
-24.52167
  20
31.7424
  30
0.0
   0
VERTEX
   5
6F1
100
AcDbEntity
   8
TITLEBLOCK
   6
CONTINUOUS
  62
      9
100
AcDbVertex
100
AcDb2dVertex
  10
-24.45917
  20
31.85065
  30
0.0
   0
SEQEND
   5
6F2
100
AcDbEntity
   8
TITLEBLOCK
   6
CONTINUOUS
   0
POLYLINE
   5
6F3
100
AcDbEntity
   8
TITLEBLOCK
   6
CONTINUOUS
  62
      9
100
AcDb2dPolyline
  66
      1
  10
0.0
  20
0.0
  30
0.0
  70
      1
  75
      5
   0
VERTEX
   5
6F4
100
AcDbEntity
   8
TITLEBLOCK
   6
CONTINUOUS
  62
      9
100
AcDbVertex
100
AcDb2dVertex
  10
-24.52167
  20
31.7424
  30
0.0
   0
VERTEX
   5
6F5
100
AcDbEntity
   8
TITLEBLOCK
   6
CONTINUOUS
  62
      9
100
AcDbVertex
100
AcDb2dVertex
  10
-24.58417
  20
31.85065
  30
0.0
   0
VERTEX
   5
6F6
100
AcDbEntity
   8
TITLEBLOCK
   6
CONTINUOUS
  62
      9
100
AcDbVertex
100
AcDb2dVertex
  10
-24.52167
  20
30.85065
  30
0.0
   0
VERTEX
   5
6F7
100
AcDbEntity
   8
TITLEBLOCK
   6
CONTINUOUS
  62
      9
100
AcDbVertex
100
AcDb2dVertex
  10
-24.45917
  20
30.9589
  30
0.0
   0
SEQEND
   5
6F8
100
AcDbEntity
   8
TITLEBLOCK
   6
CONTINUOUS
   0
POLYLINE
   5
6F9
100
AcDbEntity
   8
TITLEBLOCK
   6
CONTINUOUS
  62
      9
100
AcDb2dPolyline
  66
      1
  10
0.0
  20
0.0
  30
0.0
  70
      1
  75
      5
   0
VERTEX
   5
6FA
100
AcDbEntity
   8
TITLEBLOCK
   6
CONTINUOUS
  62
      9
100
AcDbVertex
100
AcDb2dVertex
  10
-24.52167
  20
30.85065
  30
0.0
   0
VERTEX
   5
6FB
100
AcDbEntity
   8
TITLEBLOCK
   6
CONTINUOUS
  62
      9
100
AcDbVertex
100
AcDb2dVertex
  10
-24.58417
  20
30.9589
  30
0.0
   0
VERTEX
   5
6FC
100
AcDbEntity
   8
TITLEBLOCK
   6
CONTINUOUS
  62
      9
100
AcDbVertex
100
AcDb2dVertex
  10
-24.64667
  20
31.74239
  30
0.0
   0
VERTEX
   5
6FD
100
AcDbEntity
   8
TITLEBLOCK
   6
CONTINUOUS
  62
      9
100
AcDbVertex
100
AcDb2dVertex
  10
-24.58417
  20
31.85064
  30
0.0
   0
SEQEND
   5
6FE
100
AcDbEntity
   8
TITLEBLOCK
   6
CONTINUOUS
   0
POLYLINE
   5
6FF
100
AcDbEntity
   8
TITLEBLOCK
   6
CONTINUOUS
  62
      9
100
AcDb2dPolyline
  66
      1
  10
0.0
  20
0.0
  30
0.0
  70
      1
  75
      5
   0
VERTEX
   5
700
100
AcDbEntity
   8
TITLEBLOCK
   6
CONTINUOUS
  62
      9
100
AcDbVertex
100
AcDb2dVertex
  10
-24.64667
  20
31.74239
  30
0.0
   0
VERTEX
   5
701
100
AcDbEntity
   8
TITLEBLOCK
   6
CONTINUOUS
  62
      9
100
AcDbVertex
100
AcDb2dVertex
  10
-24.70917
  20
31.85064
  30
0.0
   0
VERTEX
   5
702
100
AcDbEntity
   8
TITLEBLOCK
   6
CONTINUOUS
  62
      9
100
AcDbVertex
100
AcDb2dVertex
  10
-24.64667
  20
30.85064
  30
0.0
   0
VERTEX
   5
703
100
AcDbEntity
   8
TITLEBLOCK
   6
CONTINUOUS
  62
      9
100
AcDbVertex
100
AcDb2dVertex
  10
-24.58417
  20
30.95889
  30
0.0
   0
SEQEND
   5
704
100
AcDbEntity
   8
TITLEBLOCK
   6
CONTINUOUS
   0
POLYLINE
   5
705
100
AcDbEntity
   8
TITLEBLOCK
   6
CONTINUOUS
  62
      9
100
AcDb2dPolyline
  66
      1
  10
0.0
  20
0.0
  30
0.0
  70
      1
  75
      5
   0
VERTEX
   5
706
100
AcDbEntity
   8
TITLEBLOCK
   6
CONTINUOUS
  62
      9
100
AcDbVertex
100
AcDb2dVertex
  10
-24.64667
  20
30.85064
  30
0.0
   0
VERTEX
   5
707
100
AcDbEntity
   8
TITLEBLOCK
   6
CONTINUOUS
  62
      9
100
AcDbVertex
100
AcDb2dVertex
  10
-24.70917
  20
30.95889
  30
0.0
   0
VERTEX
   5
708
100
AcDbEntity
   8
TITLEBLOCK
   6
CONTINUOUS
  62
      9
100
AcDbVertex
100
AcDb2dVertex
  10
-24.77167
  20
31.74238
  30
0.0
   0
VERTEX
   5
709
100
AcDbEntity
   8
TITLEBLOCK
   6
CONTINUOUS
  62
      9
100
AcDbVertex
100
AcDb2dVertex
  10
-24.70917
  20
31.85063
  30
0.0
   0
SEQEND
   5
70A
100
AcDbEntity
   8
TITLEBLOCK
   6
CONTINUOUS
   0
POLYLINE
   5
70B
100
AcDbEntity
   8
TITLEBLOCK
   6
CONTINUOUS
  62
      9
100
AcDb2dPolyline
  66
      1
  10
0.0
  20
0.0
  30
0.0
  70
      1
  75
      5
   0
VERTEX
   5
70C
100
AcDbEntity
   8
TITLEBLOCK
   6
CONTINUOUS
  62
      9
100
AcDbVertex
100
AcDb2dVertex
  10
-24.77167
  20
31.74238
  30
0.0
   0
VERTEX
   5
70D
100
AcDbEntity
   8
TITLEBLOCK
   6
CONTINUOUS
  62
      9
100
AcDbVertex
100
AcDb2dVertex
  10
-24.83417
  20
31.85063
  30
0.0
   0
VERTEX
   5
70E
100
AcDbEntity
   8
TITLEBLOCK
   6
CONTINUOUS
  62
      9
100
AcDbVertex
100
AcDb2dVertex
  10
-24.77167
  20
30.85063
  30
0.0
   0
VERTEX
   5
70F
100
AcDbEntity
   8
TITLEBLOCK
   6
CONTINUOUS
  62
      9
100
AcDbVertex
100
AcDb2dVertex
  10
-24.70917
  20
30.95888
  30
0.0
   0
SEQEND
   5
710
100
AcDbEntity
   8
TITLEBLOCK
   6
CONTINUOUS
   0
POLYLINE
   5
711
100
AcDbEntity
   8
TITLEBLOCK
   6
CONTINUOUS
  62
      9
100
AcDb2dPolyline
  66
      1
  10
0.0
  20
0.0
  30
0.0
  70
      1
  75
      5
   0
VERTEX
   5
712
100
AcDbEntity
   8
TITLEBLOCK
   6
CONTINUOUS
  62
      9
100
AcDbVertex
100
AcDb2dVertex
  10
-24.77167
  20
30.85063
  30
0.0
   0
VERTEX
   5
713
100
AcDbEntity
   8
TITLEBLOCK
   6
CONTINUOUS
  62
      9
100
AcDbVertex
100
AcDb2dVertex
  10
-24.83417
  20
30.95888
  30
0.0
   0
VERTEX
   5
714
100
AcDbEntity
   8
TITLEBLOCK
   6
CONTINUOUS
  62
      9
100
AcDbVertex
100
AcDb2dVertex
  10
-24.89667
  20
31.74237
  30
0.0
   0
VERTEX
   5
715
100
AcDbEntity
   8
TITLEBLOCK
   6
CONTINUOUS
  62
      9
100
AcDbVertex
100
AcDb2dVertex
  10
-24.83417
  20
31.85062
  30
0.0
   0
SEQEND
   5
716
100
AcDbEntity
   8
TITLEBLOCK
   6
CONTINUOUS
   0
POLYLINE
   5
717
100
AcDbEntity
   8
TITLEBLOCK
   6
CONTINUOUS
  62
      9
100
AcDb2dPolyline
  66
      1
  10
0.0
  20
0.0
  30
0.0
  70
      1
  75
      5
   0
VERTEX
   5
718
100
AcDbEntity
   8
TITLEBLOCK
   6
CONTINUOUS
  62
      9
100
AcDbVertex
100
AcDb2dVertex
  10
-24.89667
  20
31.74237
  30
0.0
   0
VERTEX
   5
719
100
AcDbEntity
   8
TITLEBLOCK
   6
CONTINUOUS
  62
      9
100
AcDbVertex
100
AcDb2dVertex
  10
-24.95917
  20
31.85062
  30
0.0
   0
VERTEX
   5
71A
100
AcDbEntity
   8
TITLEBLOCK
   6
CONTINUOUS
  62
      9
100
AcDbVertex
100
AcDb2dVertex
  10
-24.89667
  20
30.85062
  30
0.0
   0
VERTEX
   5
71B
100
AcDbEntity
   8
TITLEBLOCK
   6
CONTINUOUS
  62
      9
100
AcDbVertex
100
AcDb2dVertex
  10
-24.83417
  20
30.95887
  30
0.0
   0
SEQEND
   5
71C
100
AcDbEntity
   8
TITLEBLOCK
   6
CONTINUOUS
   0
POLYLINE
   5
71D
100
AcDbEntity
   8
TITLEBLOCK
   6
CONTINUOUS
  62
      9
100
AcDb2dPolyline
  66
      1
  10
0.0
  20
0.0
  30
0.0
  70
      1
  75
      5
   0
VERTEX
   5
71E
100
AcDbEntity
   8
TITLEBLOCK
   6
CONTINUOUS
  62
      9
100
AcDbVertex
100
AcDb2dVertex
  10
-24.89667
  20
30.85062
  30
0.0
   0
VERTEX
   5
71F
100
AcDbEntity
   8
TITLEBLOCK
   6
CONTINUOUS
  62
      9
100
AcDbVertex
100
AcDb2dVertex
  10
-24.95917
  20
30.95887
  30
0.0
   0
VERTEX
   5
720
100
AcDbEntity
   8
TITLEBLOCK
   6
CONTINUOUS
  62
      9
100
AcDbVertex
100
AcDb2dVertex
  10
-25.02167
  20
31.74236
  30
0.0
   0
VERTEX
   5
721
100
AcDbEntity
   8
TITLEBLOCK
   6
CONTINUOUS
  62
      9
100
AcDbVertex
100
AcDb2dVertex
  10
-24.95917
  20
31.85061
  30
0.0
   0
SEQEND
   5
722
100
AcDbEntity
   8
TITLEBLOCK
   6
CONTINUOUS
   0
POLYLINE
   5
723
100
AcDbEntity
   8
TITLEBLOCK
   6
CONTINUOUS
  62
      9
100
AcDb2dPolyline
  66
      1
  10
0.0
  20
0.0
  30
0.0
  70
      1
  75
      5
   0
VERTEX
   5
724
100
AcDbEntity
   8
TITLEBLOCK
   6
CONTINUOUS
  62
      9
100
AcDbVertex
100
AcDb2dVertex
  10
-25.02167
  20
31.74236
  30
0.0
   0
VERTEX
   5
725
100
AcDbEntity
   8
TITLEBLOCK
   6
CONTINUOUS
  62
      9
100
AcDbVertex
100
AcDb2dVertex
  10
-25.08417
  20
31.85061
  30
0.0
   0
VERTEX
   5
726
100
AcDbEntity
   8
TITLEBLOCK
   6
CONTINUOUS
  62
      9
100
AcDbVertex
100
AcDb2dVertex
  10
-25.02167
  20
30.85061
  30
0.0
   0
VERTEX
   5
727
100
AcDbEntity
   8
TITLEBLOCK
   6
CONTINUOUS
  62
      9
100
AcDbVertex
100
AcDb2dVertex
  10
-24.95917
  20
30.95886
  30
0.0
   0
SEQEND
   5
728
100
AcDbEntity
   8
TITLEBLOCK
   6
CONTINUOUS
   0
POLYLINE
   5
729
100
AcDbEntity
   8
TITLEBLOCK
   6
CONTINUOUS
  62
      9
100
AcDb2dPolyline
  66
      1
  10
0.0
  20
0.0
  30
0.0
  70
      1
  75
      5
   0
VERTEX
   5
72A
100
AcDbEntity
   8
TITLEBLOCK
   6
CONTINUOUS
  62
      9
100
AcDbVertex
100
AcDb2dVertex
  10
-25.02167
  20
30.85061
  30
0.0
   0
VERTEX
   5
72B
100
AcDbEntity
   8
TITLEBLOCK
   6
CONTINUOUS
  62
      9
100
AcDbVertex
100
AcDb2dVertex
  10
-25.08417
  20
30.95886
  30
0.0
   0
VERTEX
   5
72C
100
AcDbEntity
   8
TITLEBLOCK
   6
CONTINUOUS
  62
      9
100
AcDbVertex
100
AcDb2dVertex
  10
-25.14667
  20
31.74235
  30
0.0
   0
VERTEX
   5
72D
100
AcDbEntity
   8
TITLEBLOCK
   6
CONTINUOUS
  62
      9
100
AcDbVertex
100
AcDb2dVertex
  10
-25.08417
  20
31.8506
  30
0.0
   0
SEQEND
   5
72E
100
AcDbEntity
   8
TITLEBLOCK
   6
CONTINUOUS
   0
POLYLINE
   5
72F
100
AcDbEntity
   8
TITLEBLOCK
   6
CONTINUOUS
  62
      9
100
AcDb2dPolyline
  66
      1
  10
0.0
  20
0.0
  30
0.0
  70
      1
  75
      5
   0
VERTEX
   5
730
100
AcDbEntity
   8
TITLEBLOCK
   6
CONTINUOUS
  62
      9
100
AcDbVertex
100
AcDb2dVertex
  10
-25.14667
  20
31.74235
  30
0.0
   0
VERTEX
   5
731
100
AcDbEntity
   8
TITLEBLOCK
   6
CONTINUOUS
  62
      9
100
AcDbVertex
100
AcDb2dVertex
  10
-25.20917
  20
31.8506
  30
0.0
   0
VERTEX
   5
732
100
AcDbEntity
   8
TITLEBLOCK
   6
CONTINUOUS
  62
      9
100
AcDbVertex
100
AcDb2dVertex
  10
-25.14667
  20
30.8506
  30
0.0
   0
VERTEX
   5
733
100
AcDbEntity
   8
TITLEBLOCK
   6
CONTINUOUS
  62
      9
100
AcDbVertex
100
AcDb2dVertex
  10
-25.08417
  20
30.95885
  30
0.0
   0
SEQEND
   5
734
100
AcDbEntity
   8
TITLEBLOCK
   6
CONTINUOUS
   0
POLYLINE
   5
735
100
AcDbEntity
   8
TITLEBLOCK
   6
CONTINUOUS
  62
      9
100
AcDb2dPolyline
  66
      1
  10
0.0
  20
0.0
  30
0.0
  70
      1
  75
      5
   0
VERTEX
   5
736
100
AcDbEntity
   8
TITLEBLOCK
   6
CONTINUOUS
  62
      9
100
AcDbVertex
100
AcDb2dVertex
  10
-25.14667
  20
30.8506
  30
0.0
   0
VERTEX
   5
737
100
AcDbEntity
   8
TITLEBLOCK
   6
CONTINUOUS
  62
      9
100
AcDbVertex
100
AcDb2dVertex
  10
-25.20917
  20
30.95885
  30
0.0
   0
VERTEX
   5
738
100
AcDbEntity
   8
TITLEBLOCK
   6
CONTINUOUS
  62
      9
100
AcDbVertex
100
AcDb2dVertex
  10
-25.27167
  20
31.74234
  30
0.0
   0
VERTEX
   5
739
100
AcDbEntity
   8
TITLEBLOCK
   6
CONTINUOUS
  62
      9
100
AcDbVertex
100
AcDb2dVertex
  10
-25.20917
  20
31.85059
  30
0.0
   0
SEQEND
   5
73A
100
AcDbEntity
   8
TITLEBLOCK
   6
CONTINUOUS
   0
POLYLINE
   5
73B
100
AcDbEntity
   8
TITLEBLOCK
   6
CONTINUOUS
  62
      9
100
AcDb2dPolyline
  66
      1
  10
0.0
  20
0.0
  30
0.0
  70
      1
  75
      5
   0
VERTEX
   5
73C
100
AcDbEntity
   8
TITLEBLOCK
   6
CONTINUOUS
  62
      9
100
AcDbVertex
100
AcDb2dVertex
  10
-25.27167
  20
31.74234
  30
0.0
   0
VERTEX
   5
73D
100
AcDbEntity
   8
TITLEBLOCK
   6
CONTINUOUS
  62
      9
100
AcDbVertex
100
AcDb2dVertex
  10
-25.33417
  20
31.85059
  30
0.0
   0
VERTEX
   5
73E
100
AcDbEntity
   8
TITLEBLOCK
   6
CONTINUOUS
  62
      9
100
AcDbVertex
100
AcDb2dVertex
  10
-25.27167
  20
30.85059
  30
0.0
   0
VERTEX
   5
73F
100
AcDbEntity
   8
TITLEBLOCK
   6
CONTINUOUS
  62
      9
100
AcDbVertex
100
AcDb2dVertex
  10
-25.20917
  20
30.95884
  30
0.0
   0
SEQEND
   5
740
100
AcDbEntity
   8
TITLEBLOCK
   6
CONTINUOUS
   0
POLYLINE
   5
741
100
AcDbEntity
   8
TITLEBLOCK
   6
CONTINUOUS
  62
      9
100
AcDb2dPolyline
  66
      1
  10
0.0
  20
0.0
  30
0.0
  70
      1
  75
      5
   0
VERTEX
   5
742
100
AcDbEntity
   8
TITLEBLOCK
   6
CONTINUOUS
  62
      9
100
AcDbVertex
100
AcDb2dVertex
  10
-25.27167
  20
30.85059
  30
0.0
   0
VERTEX
   5
743
100
AcDbEntity
   8
TITLEBLOCK
   6
CONTINUOUS
  62
      9
100
AcDbVertex
100
AcDb2dVertex
  10
-25.33417
  20
30.95884
  30
0.0
   0
VERTEX
   5
744
100
AcDbEntity
   8
TITLEBLOCK
   6
CONTINUOUS
  62
      9
100
AcDbVertex
100
AcDb2dVertex
  10
-25.39667
  20
31.74233
  30
0.0
   0
VERTEX
   5
745
100
AcDbEntity
   8
TITLEBLOCK
   6
CONTINUOUS
  62
      9
100
AcDbVertex
100
AcDb2dVertex
  10
-25.33417
  20
31.85058
  30
0.0
   0
SEQEND
   5
746
100
AcDbEntity
   8
TITLEBLOCK
   6
CONTINUOUS
   0
POLYLINE
   5
747
100
AcDbEntity
   8
TITLEBLOCK
   6
CONTINUOUS
  62
      9
100
AcDb2dPolyline
  66
      1
  10
0.0
  20
0.0
  30
0.0
  70
      1
  75
      5
   0
VERTEX
   5
748
100
AcDbEntity
   8
TITLEBLOCK
   6
CONTINUOUS
  62
      9
100
AcDbVertex
100
AcDb2dVertex
  10
-25.39667
  20
31.74233
  30
0.0
   0
VERTEX
   5
749
100
AcDbEntity
   8
TITLEBLOCK
   6
CONTINUOUS
  62
      9
100
AcDbVertex
100
AcDb2dVertex
  10
-25.45917
  20
31.85058
  30
0.0
   0
VERTEX
   5
74A
100
AcDbEntity
   8
TITLEBLOCK
   6
CONTINUOUS
  62
      9
100
AcDbVertex
100
AcDb2dVertex
  10
-25.39667
  20
30.85058
  30
0.0
   0
VERTEX
   5
74B
100
AcDbEntity
   8
TITLEBLOCK
   6
CONTINUOUS
  62
      9
100
AcDbVertex
100
AcDb2dVertex
  10
-25.33417
  20
30.95883
  30
0.0
   0
SEQEND
   5
74C
100
AcDbEntity
   8
TITLEBLOCK
   6
CONTINUOUS
   0
POLYLINE
   5
74D
100
AcDbEntity
   8
TITLEBLOCK
   6
CONTINUOUS
  62
      9
100
AcDb2dPolyline
  66
      1
  10
0.0
  20
0.0
  30
0.0
  70
      1
  75
      5
   0
VERTEX
   5
74E
100
AcDbEntity
   8
TITLEBLOCK
   6
CONTINUOUS
  62
      9
100
AcDbVertex
100
AcDb2dVertex
  10
-25.39667
  20
30.85058
  30
0.0
   0
VERTEX
   5
74F
100
AcDbEntity
   8
TITLEBLOCK
   6
CONTINUOUS
  62
      9
100
AcDbVertex
100
AcDb2dVertex
  10
-25.45917
  20
30.95883
  30
0.0
   0
VERTEX
   5
750
100
AcDbEntity
   8
TITLEBLOCK
   6
CONTINUOUS
  62
      9
100
AcDbVertex
100
AcDb2dVertex
  10
-25.52167
  20
31.74232
  30
0.0
   0
VERTEX
   5
751
100
AcDbEntity
   8
TITLEBLOCK
   6
CONTINUOUS
  62
      9
100
AcDbVertex
100
AcDb2dVertex
  10
-25.45917
  20
31.85057
  30
0.0
   0
SEQEND
   5
752
100
AcDbEntity
   8
TITLEBLOCK
   6
CONTINUOUS
   0
POLYLINE
   5
753
100
AcDbEntity
   8
TITLEBLOCK
   6
CONTINUOUS
  62
      9
100
AcDb2dPolyline
  66
      1
  10
0.0
  20
0.0
  30
0.0
  70
      1
  75
      5
   0
VERTEX
   5
754
100
AcDbEntity
   8
TITLEBLOCK
   6
CONTINUOUS
  62
      9
100
AcDbVertex
100
AcDb2dVertex
  10
-25.52167
  20
31.74232
  30
0.0
   0
VERTEX
   5
755
100
AcDbEntity
   8
TITLEBLOCK
   6
CONTINUOUS
  62
      9
100
AcDbVertex
100
AcDb2dVertex
  10
-25.58417
  20
31.85057
  30
0.0
   0
VERTEX
   5
756
100
AcDbEntity
   8
TITLEBLOCK
   6
CONTINUOUS
  62
      9
100
AcDbVertex
100
AcDb2dVertex
  10
-25.52167
  20
30.85057
  30
0.0
   0
VERTEX
   5
757
100
AcDbEntity
   8
TITLEBLOCK
   6
CONTINUOUS
  62
      9
100
AcDbVertex
100
AcDb2dVertex
  10
-25.45917
  20
30.95882
  30
0.0
   0
SEQEND
   5
758
100
AcDbEntity
   8
TITLEBLOCK
   6
CONTINUOUS
   0
POLYLINE
   5
759
100
AcDbEntity
   8
TITLEBLOCK
   6
CONTINUOUS
  62
      9
100
AcDb2dPolyline
  66
      1
  10
0.0
  20
0.0
  30
0.0
  70
      1
  75
      5
   0
VERTEX
   5
75A
100
AcDbEntity
   8
TITLEBLOCK
   6
CONTINUOUS
  62
      9
100
AcDbVertex
100
AcDb2dVertex
  10
-25.52167
  20
30.85057
  30
0.0
   0
VERTEX
   5
75B
100
AcDbEntity
   8
TITLEBLOCK
   6
CONTINUOUS
  62
      9
100
AcDbVertex
100
AcDb2dVertex
  10
-25.58417
  20
30.95882
  30
0.0
   0
VERTEX
   5
75C
100
AcDbEntity
   8
TITLEBLOCK
   6
CONTINUOUS
  62
      9
100
AcDbVertex
100
AcDb2dVertex
  10
-25.64667
  20
31.74231
  30
0.0
   0
VERTEX
   5
75D
100
AcDbEntity
   8
TITLEBLOCK
   6
CONTINUOUS
  62
      9
100
AcDbVertex
100
AcDb2dVertex
  10
-25.58417
  20
31.85056
  30
0.0
   0
SEQEND
   5
75E
100
AcDbEntity
   8
TITLEBLOCK
   6
CONTINUOUS
   0
POLYLINE
   5
75F
100
AcDbEntity
   8
TITLEBLOCK
   6
CONTINUOUS
  62
      9
100
AcDb2dPolyline
  66
      1
  10
0.0
  20
0.0
  30
0.0
  70
      1
  75
      5
   0
VERTEX
   5
760
100
AcDbEntity
   8
TITLEBLOCK
   6
CONTINUOUS
  62
      9
100
AcDbVertex
100
AcDb2dVertex
  10
-25.64667
  20
31.74231
  30
0.0
   0
VERTEX
   5
761
100
AcDbEntity
   8
TITLEBLOCK
   6
CONTINUOUS
  62
      9
100
AcDbVertex
100
AcDb2dVertex
  10
-25.70917
  20
31.85056
  30
0.0
   0
VERTEX
   5
762
100
AcDbEntity
   8
TITLEBLOCK
   6
CONTINUOUS
  62
      9
100
AcDbVertex
100
AcDb2dVertex
  10
-25.64667
  20
30.85056
  30
0.0
   0
VERTEX
   5
763
100
AcDbEntity
   8
TITLEBLOCK
   6
CONTINUOUS
  62
      9
100
AcDbVertex
100
AcDb2dVertex
  10
-25.58417
  20
30.95881
  30
0.0
   0
SEQEND
   5
764
100
AcDbEntity
   8
TITLEBLOCK
   6
CONTINUOUS
   0
POLYLINE
   5
765
100
AcDbEntity
   8
TITLEBLOCK
   6
CONTINUOUS
  62
      9
100
AcDb2dPolyline
  66
      1
  10
0.0
  20
0.0
  30
0.0
  70
      1
  75
      5
   0
VERTEX
   5
766
100
AcDbEntity
   8
TITLEBLOCK
   6
CONTINUOUS
  62
      9
100
AcDbVertex
100
AcDb2dVertex
  10
-25.64667
  20
30.85056
  30
0.0
   0
VERTEX
   5
767
100
AcDbEntity
   8
TITLEBLOCK
   6
CONTINUOUS
  62
      9
100
AcDbVertex
100
AcDb2dVertex
  10
-25.70917
  20
30.95881
  30
0.0
   0
VERTEX
   5
768
100
AcDbEntity
   8
TITLEBLOCK
   6
CONTINUOUS
  62
      9
100
AcDbVertex
100
AcDb2dVertex
  10
-25.77167
  20
31.7423
  30
0.0
   0
VERTEX
   5
769
100
AcDbEntity
   8
TITLEBLOCK
   6
CONTINUOUS
  62
      9
100
AcDbVertex
100
AcDb2dVertex
  10
-25.70917
  20
31.85055
  30
0.0
   0
SEQEND
   5
76A
100
AcDbEntity
   8
TITLEBLOCK
   6
CONTINUOUS
   0
POLYLINE
   5
76B
100
AcDbEntity
   8
TITLEBLOCK
   6
CONTINUOUS
  62
      9
100
AcDb2dPolyline
  66
      1
  10
0.0
  20
0.0
  30
0.0
  70
      1
  75
      5
   0
VERTEX
   5
76C
100
AcDbEntity
   8
TITLEBLOCK
   6
CONTINUOUS
  62
      9
100
AcDbVertex
100
AcDb2dVertex
  10
-25.77167
  20
31.7423
  30
0.0
   0
VERTEX
   5
76D
100
AcDbEntity
   8
TITLEBLOCK
   6
CONTINUOUS
  62
      9
100
AcDbVertex
100
AcDb2dVertex
  10
-25.83417
  20
31.85055
  30
0.0
   0
VERTEX
   5
76E
100
AcDbEntity
   8
TITLEBLOCK
   6
CONTINUOUS
  62
      9
100
AcDbVertex
100
AcDb2dVertex
  10
-25.77167
  20
30.85055
  30
0.0
   0
VERTEX
   5
76F
100
AcDbEntity
   8
TITLEBLOCK
   6
CONTINUOUS
  62
      9
100
AcDbVertex
100
AcDb2dVertex
  10
-25.70917
  20
30.9588
  30
0.0
   0
SEQEND
   5
770
100
AcDbEntity
   8
TITLEBLOCK
   6
CONTINUOUS
   0
POLYLINE
   5
771
100
AcDbEntity
   8
TITLEBLOCK
   6
CONTINUOUS
  62
      9
100
AcDb2dPolyline
  66
      1
  10
0.0
  20
0.0
  30
0.0
  70
      1
  75
      5
   0
VERTEX
   5
772
100
AcDbEntity
   8
TITLEBLOCK
   6
CONTINUOUS
  62
      9
100
AcDbVertex
100
AcDb2dVertex
  10
-25.77167
  20
30.85055
  30
0.0
   0
VERTEX
   5
773
100
AcDbEntity
   8
TITLEBLOCK
   6
CONTINUOUS
  62
      9
100
AcDbVertex
100
AcDb2dVertex
  10
-25.83417
  20
30.9588
  30
0.0
   0
VERTEX
   5
774
100
AcDbEntity
   8
TITLEBLOCK
   6
CONTINUOUS
  62
      9
100
AcDbVertex
100
AcDb2dVertex
  10
-25.89667
  20
31.74229
  30
0.0
   0
VERTEX
   5
775
100
AcDbEntity
   8
TITLEBLOCK
   6
CONTINUOUS
  62
      9
100
AcDbVertex
100
AcDb2dVertex
  10
-25.83417
  20
31.85054
  30
0.0
   0
SEQEND
   5
776
100
AcDbEntity
   8
TITLEBLOCK
   6
CONTINUOUS
   0
POLYLINE
   5
777
100
AcDbEntity
   8
TITLEBLOCK
   6
CONTINUOUS
  62
      9
100
AcDb2dPolyline
  66
      1
  10
0.0
  20
0.0
  30
0.0
  70
      1
  75
      5
   0
VERTEX
   5
778
100
AcDbEntity
   8
TITLEBLOCK
   6
CONTINUOUS
  62
      9
100
AcDbVertex
100
AcDb2dVertex
  10
-25.89667
  20
31.74229
  30
0.0
   0
VERTEX
   5
779
100
AcDbEntity
   8
TITLEBLOCK
   6
CONTINUOUS
  62
      9
100
AcDbVertex
100
AcDb2dVertex
  10
-25.95917
  20
31.85054
  30
0.0
   0
VERTEX
   5
77A
100
AcDbEntity
   8
TITLEBLOCK
   6
CONTINUOUS
  62
      9
100
AcDbVertex
100
AcDb2dVertex
  10
-25.89667
  20
30.85054
  30
0.0
   0
VERTEX
   5
77B
100
AcDbEntity
   8
TITLEBLOCK
   6
CONTINUOUS
  62
      9
100
AcDbVertex
100
AcDb2dVertex
  10
-25.83417
  20
30.95879
  30
0.0
   0
SEQEND
   5
77C
100
AcDbEntity
   8
TITLEBLOCK
   6
CONTINUOUS
   0
POLYLINE
   5
77D
100
AcDbEntity
   8
TITLEBLOCK
   6
CONTINUOUS
  62
      9
100
AcDb2dPolyline
  66
      1
  10
0.0
  20
0.0
  30
0.0
  70
      1
  75
      5
   0
VERTEX
   5
77E
100
AcDbEntity
   8
TITLEBLOCK
   6
CONTINUOUS
  62
      9
100
AcDbVertex
100
AcDb2dVertex
  10
-25.89667
  20
30.85054
  30
0.0
   0
VERTEX
   5
77F
100
AcDbEntity
   8
TITLEBLOCK
   6
CONTINUOUS
  62
      9
100
AcDbVertex
100
AcDb2dVertex
  10
-25.95917
  20
30.95879
  30
0.0
   0
VERTEX
   5
780
100
AcDbEntity
   8
TITLEBLOCK
   6
CONTINUOUS
  62
      9
100
AcDbVertex
100
AcDb2dVertex
  10
-26.02167
  20
31.74228
  30
0.0
   0
VERTEX
   5
781
100
AcDbEntity
   8
TITLEBLOCK
   6
CONTINUOUS
  62
      9
100
AcDbVertex
100
AcDb2dVertex
  10
-25.95917
  20
31.85053
  30
0.0
   0
SEQEND
   5
782
100
AcDbEntity
   8
TITLEBLOCK
   6
CONTINUOUS
   0
POLYLINE
   5
783
100
AcDbEntity
   8
TITLEBLOCK
   6
CONTINUOUS
  62
      9
100
AcDb2dPolyline
  66
      1
  10
0.0
  20
0.0
  30
0.0
  70
      1
  75
      5
   0
VERTEX
   5
784
100
AcDbEntity
   8
TITLEBLOCK
   6
CONTINUOUS
  62
      9
100
AcDbVertex
100
AcDb2dVertex
  10
-26.02167
  20
31.74228
  30
0.0
   0
VERTEX
   5
785
100
AcDbEntity
   8
TITLEBLOCK
   6
CONTINUOUS
  62
      9
100
AcDbVertex
100
AcDb2dVertex
  10
-26.08417
  20
31.85053
  30
0.0
   0
VERTEX
   5
786
100
AcDbEntity
   8
TITLEBLOCK
   6
CONTINUOUS
  62
      9
100
AcDbVertex
100
AcDb2dVertex
  10
-26.02167
  20
30.85053
  30
0.0
   0
VERTEX
   5
787
100
AcDbEntity
   8
TITLEBLOCK
   6
CONTINUOUS
  62
      9
100
AcDbVertex
100
AcDb2dVertex
  10
-25.95917
  20
30.95878
  30
0.0
   0
SEQEND
   5
788
100
AcDbEntity
   8
TITLEBLOCK
   6
CONTINUOUS
   0
POLYLINE
   5
789
100
AcDbEntity
   8
TITLEBLOCK
   6
CONTINUOUS
  62
      9
100
AcDb2dPolyline
  66
      1
  10
0.0
  20
0.0
  30
0.0
  70
      1
  75
      5
   0
VERTEX
   5
78A
100
AcDbEntity
   8
TITLEBLOCK
   6
CONTINUOUS
  62
      9
100
AcDbVertex
100
AcDb2dVertex
  10
-26.02167
  20
30.85053
  30
0.0
   0
VERTEX
   5
78B
100
AcDbEntity
   8
TITLEBLOCK
   6
CONTINUOUS
  62
      9
100
AcDbVertex
100
AcDb2dVertex
  10
-26.08417
  20
30.95878
  30
0.0
   0
VERTEX
   5
78C
100
AcDbEntity
   8
TITLEBLOCK
   6
CONTINUOUS
  62
      9
100
AcDbVertex
100
AcDb2dVertex
  10
-26.14667
  20
31.74227
  30
0.0
   0
VERTEX
   5
78D
100
AcDbEntity
   8
TITLEBLOCK
   6
CONTINUOUS
  62
      9
100
AcDbVertex
100
AcDb2dVertex
  10
-26.08417
  20
31.85052
  30
0.0
   0
SEQEND
   5
78E
100
AcDbEntity
   8
TITLEBLOCK
   6
CONTINUOUS
   0
POLYLINE
   5
78F
100
AcDbEntity
   8
TITLEBLOCK
   6
CONTINUOUS
  62
      9
100
AcDb2dPolyline
  66
      1
  10
0.0
  20
0.0
  30
0.0
  70
      1
  75
      5
   0
VERTEX
   5
790
100
AcDbEntity
   8
TITLEBLOCK
   6
CONTINUOUS
  62
      9
100
AcDbVertex
100
AcDb2dVertex
  10
-26.14667
  20
31.74227
  30
0.0
   0
VERTEX
   5
791
100
AcDbEntity
   8
TITLEBLOCK
   6
CONTINUOUS
  62
      9
100
AcDbVertex
100
AcDb2dVertex
  10
-26.20917
  20
31.85052
  30
0.0
   0
VERTEX
   5
792
100
AcDbEntity
   8
TITLEBLOCK
   6
CONTINUOUS
  62
      9
100
AcDbVertex
100
AcDb2dVertex
  10
-26.14667
  20
30.85052
  30
0.0
   0
VERTEX
   5
793
100
AcDbEntity
   8
TITLEBLOCK
   6
CONTINUOUS
  62
      9
100
AcDbVertex
100
AcDb2dVertex
  10
-26.08417
  20
30.95877
  30
0.0
   0
SEQEND
   5
794
100
AcDbEntity
   8
TITLEBLOCK
   6
CONTINUOUS
   0
POLYLINE
   5
795
100
AcDbEntity
   8
TITLEBLOCK
   6
CONTINUOUS
  62
      9
100
AcDb2dPolyline
  66
      1
  10
0.0
  20
0.0
  30
0.0
  70
      1
  75
      5
   0
VERTEX
   5
796
100
AcDbEntity
   8
TITLEBLOCK
   6
CONTINUOUS
  62
      9
100
AcDbVertex
100
AcDb2dVertex
  10
-26.14667
  20
30.85052
  30
0.0
   0
VERTEX
   5
797
100
AcDbEntity
   8
TITLEBLOCK
   6
CONTINUOUS
  62
      9
100
AcDbVertex
100
AcDb2dVertex
  10
-26.20917
  20
30.95877
  30
0.0
   0
VERTEX
   5
798
100
AcDbEntity
   8
TITLEBLOCK
   6
CONTINUOUS
  62
      9
100
AcDbVertex
100
AcDb2dVertex
  10
-26.27167
  20
31.74226
  30
0.0
   0
VERTEX
   5
799
100
AcDbEntity
   8
TITLEBLOCK
   6
CONTINUOUS
  62
      9
100
AcDbVertex
100
AcDb2dVertex
  10
-26.20917
  20
31.85051
  30
0.0
   0
SEQEND
   5
79A
100
AcDbEntity
   8
TITLEBLOCK
   6
CONTINUOUS
   0
POLYLINE
   5
79B
100
AcDbEntity
   8
TITLEBLOCK
   6
CONTINUOUS
  62
      9
100
AcDb2dPolyline
  66
      1
  10
0.0
  20
0.0
  30
0.0
  70
      1
  75
      5
   0
VERTEX
   5
79C
100
AcDbEntity
   8
TITLEBLOCK
   6
CONTINUOUS
  62
      9
100
AcDbVertex
100
AcDb2dVertex
  10
-26.27167
  20
31.74226
  30
0.0
   0
VERTEX
   5
79D
100
AcDbEntity
   8
TITLEBLOCK
   6
CONTINUOUS
  62
      9
100
AcDbVertex
100
AcDb2dVertex
  10
-26.33417
  20
31.85051
  30
0.0
   0
VERTEX
   5
79E
100
AcDbEntity
   8
TITLEBLOCK
   6
CONTINUOUS
  62
      9
100
AcDbVertex
100
AcDb2dVertex
  10
-26.27167
  20
30.85051
  30
0.0
   0
VERTEX
   5
79F
100
AcDbEntity
   8
TITLEBLOCK
   6
CONTINUOUS
  62
      9
100
AcDbVertex
100
AcDb2dVertex
  10
-26.20917
  20
30.95876
  30
0.0
   0
SEQEND
   5
7A0
100
AcDbEntity
   8
TITLEBLOCK
   6
CONTINUOUS
   0
POLYLINE
   5
7A1
100
AcDbEntity
   8
TITLEBLOCK
   6
CONTINUOUS
  62
      9
100
AcDb2dPolyline
  66
      1
  10
0.0
  20
0.0
  30
0.0
  70
      1
  75
      5
   0
VERTEX
   5
7A2
100
AcDbEntity
   8
TITLEBLOCK
   6
CONTINUOUS
  62
      9
100
AcDbVertex
100
AcDb2dVertex
  10
-26.27167
  20
30.85051
  30
0.0
   0
VERTEX
   5
7A3
100
AcDbEntity
   8
TITLEBLOCK
   6
CONTINUOUS
  62
      9
100
AcDbVertex
100
AcDb2dVertex
  10
-26.33417
  20
30.95876
  30
0.0
   0
VERTEX
   5
7A4
100
AcDbEntity
   8
TITLEBLOCK
   6
CONTINUOUS
  62
      9
100
AcDbVertex
100
AcDb2dVertex
  10
-26.39667
  20
31.74225
  30
0.0
   0
VERTEX
   5
7A5
100
AcDbEntity
   8
TITLEBLOCK
   6
CONTINUOUS
  62
      9
100
AcDbVertex
100
AcDb2dVertex
  10
-26.33417
  20
31.8505
  30
0.0
   0
SEQEND
   5
7A6
100
AcDbEntity
   8
TITLEBLOCK
   6
CONTINUOUS
   0
POLYLINE
   5
7A7
100
AcDbEntity
   8
TITLEBLOCK
   6
CONTINUOUS
  62
      9
100
AcDb2dPolyline
  66
      1
  10
0.0
  20
0.0
  30
0.0
  70
      1
  75
      5
   0
VERTEX
   5
7A8
100
AcDbEntity
   8
TITLEBLOCK
   6
CONTINUOUS
  62
      9
100
AcDbVertex
100
AcDb2dVertex
  10
-26.39667
  20
31.74225
  30
0.0
   0
VERTEX
   5
7A9
100
AcDbEntity
   8
TITLEBLOCK
   6
CONTINUOUS
  62
      9
100
AcDbVertex
100
AcDb2dVertex
  10
-26.45917
  20
31.8505
  30
0.0
   0
VERTEX
   5
7AA
100
AcDbEntity
   8
TITLEBLOCK
   6
CONTINUOUS
  62
      9
100
AcDbVertex
100
AcDb2dVertex
  10
-26.39667
  20
30.8505
  30
0.0
   0
VERTEX
   5
7AB
100
AcDbEntity
   8
TITLEBLOCK
   6
CONTINUOUS
  62
      9
100
AcDbVertex
100
AcDb2dVertex
  10
-26.33417
  20
30.95875
  30
0.0
   0
SEQEND
   5
7AC
100
AcDbEntity
   8
TITLEBLOCK
   6
CONTINUOUS
   0
POLYLINE
   5
7AD
100
AcDbEntity
   8
TITLEBLOCK
   6
CONTINUOUS
  62
      9
100
AcDb2dPolyline
  66
      1
  10
0.0
  20
0.0
  30
0.0
  70
      1
  75
      5
   0
VERTEX
   5
7AE
100
AcDbEntity
   8
TITLEBLOCK
   6
CONTINUOUS
  62
      9
100
AcDbVertex
100
AcDb2dVertex
  10
-26.39667
  20
30.8505
  30
0.0
   0
VERTEX
   5
7AF
100
AcDbEntity
   8
TITLEBLOCK
   6
CONTINUOUS
  62
      9
100
AcDbVertex
100
AcDb2dVertex
  10
-26.45917
  20
30.95875
  30
0.0
   0
VERTEX
   5
7B0
100
AcDbEntity
   8
TITLEBLOCK
   6
CONTINUOUS
  62
      9
100
AcDbVertex
100
AcDb2dVertex
  10
-26.52167
  20
31.74224
  30
0.0
   0
VERTEX
   5
7B1
100
AcDbEntity
   8
TITLEBLOCK
   6
CONTINUOUS
  62
      9
100
AcDbVertex
100
AcDb2dVertex
  10
-26.45917
  20
31.85049
  30
0.0
   0
SEQEND
   5
7B2
100
AcDbEntity
   8
TITLEBLOCK
   6
CONTINUOUS
   0
POLYLINE
   5
7B3
100
AcDbEntity
   8
TITLEBLOCK
   6
CONTINUOUS
  62
      9
100
AcDb2dPolyline
  66
      1
  10
0.0
  20
0.0
  30
0.0
  70
      1
  75
      5
   0
VERTEX
   5
7B4
100
AcDbEntity
   8
TITLEBLOCK
   6
CONTINUOUS
  62
      9
100
AcDbVertex
100
AcDb2dVertex
  10
-26.52167
  20
31.74224
  30
0.0
   0
VERTEX
   5
7B5
100
AcDbEntity
   8
TITLEBLOCK
   6
CONTINUOUS
  62
      9
100
AcDbVertex
100
AcDb2dVertex
  10
-26.58417
  20
31.85049
  30
0.0
   0
VERTEX
   5
7B6
100
AcDbEntity
   8
TITLEBLOCK
   6
CONTINUOUS
  62
      9
100
AcDbVertex
100
AcDb2dVertex
  10
-26.52167
  20
30.85049
  30
0.0
   0
VERTEX
   5
7B7
100
AcDbEntity
   8
TITLEBLOCK
   6
CONTINUOUS
  62
      9
100
AcDbVertex
100
AcDb2dVertex
  10
-26.45917
  20
30.95874
  30
0.0
   0
SEQEND
   5
7B8
100
AcDbEntity
   8
TITLEBLOCK
   6
CONTINUOUS
   0
POLYLINE
   5
7B9
100
AcDbEntity
   8
TITLEBLOCK
   6
CONTINUOUS
  62
      9
100
AcDb2dPolyline
  66
      1
  10
0.0
  20
0.0
  30
0.0
  70
      1
  75
      5
   0
VERTEX
   5
7BA
100
AcDbEntity
   8
TITLEBLOCK
   6
CONTINUOUS
  62
      9
100
AcDbVertex
100
AcDb2dVertex
  10
-26.52167
  20
30.85049
  30
0.0
   0
VERTEX
   5
7BB
100
AcDbEntity
   8
TITLEBLOCK
   6
CONTINUOUS
  62
      9
100
AcDbVertex
100
AcDb2dVertex
  10
-26.58417
  20
30.95874
  30
0.0
   0
VERTEX
   5
7BC
100
AcDbEntity
   8
TITLEBLOCK
   6
CONTINUOUS
  62
      9
100
AcDbVertex
100
AcDb2dVertex
  10
-26.64667
  20
31.74223
  30
0.0
   0
VERTEX
   5
7BD
100
AcDbEntity
   8
TITLEBLOCK
   6
CONTINUOUS
  62
      9
100
AcDbVertex
100
AcDb2dVertex
  10
-26.58417
  20
31.85048
  30
0.0
   0
SEQEND
   5
7BE
100
AcDbEntity
   8
TITLEBLOCK
   6
CONTINUOUS
   0
POLYLINE
   5
7BF
100
AcDbEntity
   8
TITLEBLOCK
   6
CONTINUOUS
  62
      9
100
AcDb2dPolyline
  66
      1
  10
0.0
  20
0.0
  30
0.0
  70
      1
  75
      5
   0
VERTEX
   5
7C0
100
AcDbEntity
   8
TITLEBLOCK
   6
CONTINUOUS
  62
      9
100
AcDbVertex
100
AcDb2dVertex
  10
-26.64667
  20
31.74223
  30
0.0
   0
VERTEX
   5
7C1
100
AcDbEntity
   8
TITLEBLOCK
   6
CONTINUOUS
  62
      9
100
AcDbVertex
100
AcDb2dVertex
  10
-26.70917
  20
31.85048
  30
0.0
   0
VERTEX
   5
7C2
100
AcDbEntity
   8
TITLEBLOCK
   6
CONTINUOUS
  62
      9
100
AcDbVertex
100
AcDb2dVertex
  10
-26.64667
  20
30.85048
  30
0.0
   0
VERTEX
   5
7C3
100
AcDbEntity
   8
TITLEBLOCK
   6
CONTINUOUS
  62
      9
100
AcDbVertex
100
AcDb2dVertex
  10
-26.58417
  20
30.95873
  30
0.0
   0
SEQEND
   5
7C4
100
AcDbEntity
   8
TITLEBLOCK
   6
CONTINUOUS
   0
POLYLINE
   5
7C5
100
AcDbEntity
   8
TITLEBLOCK
   6
CONTINUOUS
  62
      9
100
AcDb2dPolyline
  66
      1
  10
0.0
  20
0.0
  30
0.0
  75
      5
   0
VERTEX
   5
7C6
100
AcDbEntity
   8
TITLEBLOCK
   6
CONTINUOUS
  62
      9
100
AcDbVertex
100
AcDb2dVertex
  10
-26.70917
  20
31.85048
  30
0.0
   0
VERTEX
   5
7C7
100
AcDbEntity
   8
TITLEBLOCK
   6
CONTINUOUS
  62
      9
100
AcDbVertex
100
AcDb2dVertex
  10
-26.64667
  20
30.85048
  30
0.0
   0
VERTEX
   5
7C8
100
AcDbEntity
   8
TITLEBLOCK
   6
CONTINUOUS
  62
      9
100
AcDbVertex
100
AcDb2dVertex
  10
-26.70917
  20
30.95873
  30
0.0
   0
SEQEND
   5
7C9
100
AcDbEntity
   8
TITLEBLOCK
   6
CONTINUOUS
   0
POLYLINE
   5
7CA
100
AcDbEntity
   8
TITLEBLOCK
   6
CONTINUOUS
  62
      9
100
AcDb2dPolyline
  66
      1
  10
0.0
  20
0.0
  30
0.0
  70
      1
  75
      5
   0
VERTEX
   5
7CB
100
AcDbEntity
   8
TITLEBLOCK
   6
CONTINUOUS
  62
      9
100
AcDbVertex
100
AcDb2dVertex
  10
-26.70917
  20
30.95873
  30
0.0
   0
VERTEX
   5
7CC
100
AcDbEntity
   8
TITLEBLOCK
   6
CONTINUOUS
  62
      9
100
AcDbVertex
100
AcDb2dVertex
  10
-26.74042
  20
30.9046
  30
0.0
   0
VERTEX
   5
7CD
100
AcDbEntity
   8
TITLEBLOCK
   6
CONTINUOUS
  62
      9
100
AcDbVertex
100
AcDb2dVertex
  10
-26.74042
  20
31.35047
  30
0.0
   0
VERTEX
   5
7CE
100
AcDbEntity
   8
TITLEBLOCK
   6
CONTINUOUS
  62
      9
100
AcDbVertex
100
AcDb2dVertex
  10
-26.70917
  20
30.95872
  30
0.0
   0
SEQEND
   5
7CF
100
AcDbEntity
   8
TITLEBLOCK
   6
CONTINUOUS
   0
CIRCLE
   5
7D0
100
AcDbEntity
   8
TITLEBLOCK
   6
CONTINUOUS
  62
      7
100
AcDbCircle
  10
-9.59362
  20
35.85131
  30
0.0
  40
1.0
   0
LWPOLYLINE
   5
7D1
100
AcDbEntity
   8
TITLEBLOCK
   6
CONTINUOUS
  62
      7
100
AcDbPolyline
  90
        15
  70
    129
  10
-9.83682
  20
37.35131
  10
-14.83682
  20
37.35131
  10
-14.83682
  20
36.82128
  10
-14.83682
  20
36.82128
  42
-0.343962
  10
-14.08002
  20
35.85131
  10
-14.08002
  20
35.85131
  42
-0.343955
  10
-14.83682
  20
34.88133
  10
-14.83682
  20
34.35131
  10
-9.83682
  20
34.35131
  10
-9.83682
  20
34.88133
  10
-9.83682
  20
34.88133
  42
-0.34396
  10
-10.59362
  20
35.85131
  10
-10.59362
  20
35.85131
  42
-0.343955
  10
-9.83682
  20
36.82129
  10
-9.83682
  20
37.35131
   0
LWPOLYLINE
   5
7D2
100
AcDbEntity
   8
TITLEBLOCK
   6
CONTINUOUS
  62
      7
100
AcDbPolyline
  90
         5
  70
    129
  10
-13.21182
  20
37.35131
  10
-11.46182
  20
37.35131
  10
-11.46182
  20
34.35131
  10
-13.21182
  20
34.35131
  10
-13.21182
  20
37.35131
   0
LWPOLYLINE
   5
7D3
100
AcDbEntity
   8
TITLEBLOCK
   6
CONTINUOUS
  62
      7
100
AcDbPolyline
  90
         5
  70
    129
  10
-13.08682
  20
37.35131
  10
-11.58682
  20
37.35131
  10
-11.58682
  20
34.35131
  10
-13.08682
  20
34.35131
  10
-13.08682
  20
37.35131
   0
LWPOLYLINE
   5
7D4
100
AcDbEntity
   8
TITLEBLOCK
   6
CONTINUOUS
  62
      7
100
AcDbPolyline
  90
         5
  70
    129
  10
-13.08682
  20
38.85131
  10
-11.58682
  20
38.85131
  10
-11.58682
  20
32.85131
  10
-13.08682
  20
32.85131
  10
-13.08682
  20
38.85131
   0
LWPOLYLINE
   5
7D5
100
AcDbEntity
   8
TITLEBLOCK
   6
CONTINUOUS
  62
      7
100
AcDbPolyline
  90
         5
  70
    129
  10
-21.5
  20
34.0
  10
-3.49987
  20
34.0
  10
-3.49987
  20
32.85131
  10
-21.5
  20
32.85131
  10
-21.5
  20
34.0
   0
LWPOLYLINE
   5
7D6
100
AcDbEntity
   8
TITLEBLOCK
   6
CONTINUOUS
  62
      7
100
AcDbPolyline
  90
        15
  70
    129
  10
-4.35042
  20
37.35131
  10
-9.35042
  20
37.35131
  10
-9.35042
  20
36.82128
  10
-9.35042
  20
36.82128
  42
-0.343962
  10
-8.59362
  20
35.85131
  10
-8.59362
  20
35.85131
  42
-0.343955
  10
-9.35042
  20
34.88133
  10
-9.35042
  20
34.35131
  10
-4.35042
  20
34.35131
  10
-4.35042
  20
34.88133
  10
-4.35042
  20
34.88133
  42
-0.34396
  10
-5.10722
  20
35.85131
  10
-5.10722
  20
35.85131
  42
-0.343955
  10
-4.35042
  20
36.82129
  10
-4.35042
  20
37.35131
   0
LWPOLYLINE
   5
7D7
100
AcDbEntity
   8
TITLEBLOCK
   6
CONTINUOUS
  62
      7
100
AcDbPolyline
  90
         5
  70
    129
  10
-7.72542
  20
37.35131
  10
-5.97542
  20
37.35131
  10
-5.97542
  20
34.35131
  10
-7.72542
  20
34.35131
  10
-7.72542
  20
37.35131
   0
LWPOLYLINE
   5
7D8
100
AcDbEntity
   8
TITLEBLOCK
   6
CONTINUOUS
  62
      7
100
AcDbPolyline
  90
         5
  70
    129
  10
-7.60042
  20
37.35131
  10
-6.10042
  20
37.35131
  10
-6.10042
  20
34.35131
  10
-7.60042
  20
34.35131
  10
-7.60042
  20
37.35131
   0
LWPOLYLINE
   5
7D9
100
AcDbEntity
   8
TITLEBLOCK
   6
CONTINUOUS
  62
      7
100
AcDbPolyline
  90
         5
  70
    129
  10
-7.60042
  20
38.85131
  10
-6.10042
  20
38.85131
  10
-6.10042
  20
6.2625
  10
-7.60042
  20
6.2625
  10
-7.60042
  20
38.85131
   0
LINE
   5
7DA
100
AcDbEntity
   8
TITLEBLOCK
   6
CONTINUOUS
  62
      3
100
AcDbLine
  10
34.75736
  20
43.01571
  30
0.0
  11
34.75736
  21
1.65625
  31
0.0
   0
LINE
   5
7DB
100
AcDbEntity
   8
TITLEBLOCK
   6
CONTINUOUS
  62
      3
100
AcDbLine
  10
-16.66917
  20
7.0
  30
0.0
  11
-1.13792
  21
7.0
  31
0.0
   0
LWPOLYLINE
   5
7DC
100
AcDbEntity
   8
TITLEBLOCK
   6
CONTINUOUS
  62
      1
100
AcDbPolyline
  90
         5
  70
    129
  10
-8.99852
  20
32.10194
  10
-5.74852
  20
32.10194
  10
-5.74852
  20
30.60194
  10
-8.99852
  20
30.60194
  10
-8.99852
  20
32.10194
   0
CIRCLE
   5
7DD
100
AcDbEntity
   8
TITLEBLOCK
   6
CONTINUOUS
  62
      1
100
AcDbCircle
  10
-8.36542
  20
31.35194
  30
0.0
  40
0.15625
   0
INSERT
   5
7DE
100
AcDbEntity
   8
TITLEBLOCK
100
AcDbBlockReference
   2
*G0
  10
23.29974
  20
22.85958
  30
0.0
   0
LWPOLYLINE
   5
7DF
100
AcDbEntity
   8
TITLEBLOCK
   6
CONTINUOUS
  62
      7
100
AcDbPolyline
  90
         5
  70
    129
  10
-14.83682
  20
37.35131
  10
-9.83682
  20
37.35131
  10
-9.83682
  20
37.10131
  10
-14.83682
  20
37.10131
  10
-14.83682
  20
37.35131
   0
LWPOLYLINE
   5
7E0
100
AcDbEntity
   8
TITLEBLOCK
   6
CONTINUOUS
  62
      7
100
AcDbPolyline
  90
         5
  70
    129
  10
-14.83682
  20
34.60131
  10
-9.83682
  20
34.60131
  10
-9.83682
  20
34.35131
  10
-14.83682
  20
34.35131
  10
-14.83682
  20
34.60131
   0
LWPOLYLINE
   5
7E1
100
AcDbEntity
   8
TITLEBLOCK
   6
CONTINUOUS
  62
      7
100
AcDbPolyline
  90
         5
  70
    129
  10
-9.35042
  20
37.35131
  10
-4.35042
  20
37.35131
  10
-4.35042
  20
37.10131
  10
-9.35042
  20
37.10131
  10
-9.35042
  20
37.35131
   0
LWPOLYLINE
   5
7E2
100
AcDbEntity
   8
TITLEBLOCK
   6
CONTINUOUS
  62
      7
100
AcDbPolyline
  90
         5
  70
    129
  10
-9.35042
  20
34.60131
  10
-4.35042
  20
34.60131
  10
-4.35042
  20
34.35131
  10
-9.35042
  20
34.35131
  10
-9.35042
  20
34.60131
   0
LWPOLYLINE
   5
7E3
100
AcDbEntity
   8
TITLEBLOCK
   6
CONTINUOUS
  62
      7
100
AcDbPolyline
  90
        15
  70
    129
  10
-9.83682
  20
37.35131
  10
-14.83682
  20
37.35131
  10
-14.83682
  20
36.82128
  10
-14.83682
  20
36.82128
  42
-0.343962
  10
-14.08002
  20
35.85131
  10
-14.08002
  20
35.85131
  42
-0.343955
  10
-14.83682
  20
34.88133
  10
-14.83682
  20
34.35131
  10
-9.83682
  20
34.35131
  10
-9.83682
  20
34.88133
  10
-9.83682
  20
34.88133
  42
-0.34396
  10
-10.59362
  20
35.85131
  10
-10.59362
  20
35.85131
  42
-0.343955
  10
-9.83682
  20
36.82129
  10
-9.83682
  20
37.35131
   0
LWPOLYLINE
   5
7E4
100
AcDbEntity
   8
TITLEBLOCK
   6
CONTINUOUS
  62
      7
100
AcDbPolyline
  90
         5
  70
    129
  10
-13.21182
  20
37.35131
  10
-11.46182
  20
37.35131
  10
-11.46182
  20
34.35131
  10
-13.21182
  20
34.35131
  10
-13.21182
  20
37.35131
   0
LWPOLYLINE
   5
7E5
100
AcDbEntity
   8
TITLEBLOCK
   6
CONTINUOUS
  62
      7
100
AcDbPolyline
  90
         5
  70
    129
  10
-13.08682
  20
37.35131
  10
-11.58682
  20
37.35131
  10
-11.58682
  20
34.35131
  10
-13.08682
  20
34.35131
  10
-13.08682
  20
37.35131
   0
LWPOLYLINE
   5
7E6
100
AcDbEntity
   8
TITLEBLOCK
   6
CONTINUOUS
  62
      7
100
AcDbPolyline
  90
         5
  70
    129
  10
-14.83682
  20
37.35131
  10
-9.83682
  20
37.35131
  10
-9.83682
  20
37.10131
  10
-14.83682
  20
37.10131
  10
-14.83682
  20
37.35131
   0
LWPOLYLINE
   5
7E7
100
AcDbEntity
   8
TITLEBLOCK
   6
CONTINUOUS
  62
      7
100
AcDbPolyline
  90
         5
  70
    129
  10
-14.83682
  20
34.60131
  10
-9.83682
  20
34.60131
  10
-9.83682
  20
34.35131
  10
-14.83682
  20
34.35131
  10
-14.83682
  20
34.60131
   0
LWPOLYLINE
   5
7E8
100
AcDbEntity
   8
TITLEBLOCK
   6
CONTINUOUS
  62
      7
100
AcDbPolyline
  90
         5
  70
    129
  10
-9.35042
  20
37.35131
  10
-4.35042
  20
37.35131
  10
-4.35042
  20
37.10131
  10
-9.35042
  20
37.10131
  10
-9.35042
  20
37.35131
   0
LWPOLYLINE
   5
7E9
100
AcDbEntity
   8
TITLEBLOCK
   6
CONTINUOUS
  62
      7
100
AcDbPolyline
  90
         5
  70
    129
  10
-9.35042
  20
34.60131
  10
-4.35042
  20
34.60131
  10
-4.35042
  20
34.35131
  10
-9.35042
  20
34.35131
  10
-9.35042
  20
34.60131
   0
LINE
   5
7EA
100
AcDbEntity
   8
TITLEBLOCK
   6
CONTINUOUS
  62
      7
100
AcDbLine
  10
-14.83682
  20
36.82128
  30
0.0
  11
-9.83682
  21
36.82129
  31
0.0
   0
LINE
   5
7EB
100
AcDbEntity
   8
TITLEBLOCK
   6
CONTINUOUS
  62
      7
100
AcDbLine
  10
-14.83682
  20
34.88133
  30
0.0
  11
-9.83682
  21
34.88133
  31
0.0
   0
LINE
   5
7EC
100
AcDbEntity
   8
TITLEBLOCK
   6
CONTINUOUS
  62
      7
100
AcDbLine
  10
-9.35042
  20
36.82128
  30
0.0
  11
-4.35042
  21
36.82129
  31
0.0
   0
LINE
   5
7ED
100
AcDbEntity
   8
TITLEBLOCK
   6
CONTINUOUS
  62
      7
100
AcDbLine
  10
-9.35042
  20
34.88133
  30
0.0
  11
-4.35042
  21
34.88133
  31
0.0
   0
LINE
   5
7EE
100
AcDbEntity
   8
TITLEBLOCK
   6
CONTINUOUS
  62
      3
100
AcDbLine
  10
-16.67871
  20
35.85131
  30
0.0
  11
-3.11621
  21
35.85131
  31
0.0
   0
LWPOLYLINE
   5
7EF
100
AcDbEntity
   8
TITLEBLOCK
   6
CONTINUOUS
  62
      1
100
AcDbPolyline
  90
         5
  70
    129
  10
-21.875
  20
34.0
  10
-21.5
  20
34.0
  10
-21.5
  20
28.0
  10
-21.875
  20
28.0
  10
-21.875
  20
34.0
   0
LINE
   5
7F0
100
AcDbEntity
   8
TITLEBLOCK
   6
CONTINUOUS
  62
      1
100
AcDbLine
  10
-18.5
  20
32.47631
  30
0.0
  11
-21.5
  21
29.47631
  31
0.0
   0
LWPOLYLINE
   5
7F1
100
AcDbEntity
   8
TITLEBLOCK
   6
CONTINUOUS
  62
      1
100
AcDbPolyline
  90
         5
  70
    129
  10
-21.5
  20
32.85131
  10
-18.5
  20
32.85131
  10
-18.5
  20
32.47631
  10
-21.5
  20
32.47631
  10
-21.5
  20
32.85131
   0
POLYLINE
   5
7F2
100
AcDbEntity
   8
TITLEBLOCK
   6
CONTINUOUS
  62
      7
100
AcDb2dPolyline
  66
      1
  10
0.0
  20
0.0
  30
0.0
  70
      1
  75
      5
   0
VERTEX
   5
7F3
100
AcDbEntity
   8
TITLEBLOCK
   6
CONTINUOUS
  62
      7
100
AcDbVertex
100
AcDb2dVertex
  10
-21.5
  20
32.85131
  30
0.0
   0
VERTEX
   5
7F4
100
AcDbEntity
   8
TITLEBLOCK
   6
CONTINUOUS
  62
      7
100
AcDbVertex
100
AcDb2dVertex
  10
-23.49987
  20
0.0
  30
0.0
   0
VERTEX
   5
7F5
100
AcDbEntity
   8
TITLEBLOCK
   6
CONTINUOUS
  62
      7
100
AcDbVertex
100
AcDb2dVertex
  10
-22.49484
  20
0.0
  30
0.0
   0
VERTEX
   5
7F6
100
AcDbEntity
   8
TITLEBLOCK
   6
CONTINUOUS
  62
      7
100
AcDbVertex
100
AcDb2dVertex
  10
-20.48112
  20
32.85131
  30
0.0
   0
SEQEND
   5
7F7
100
AcDbEntity
   8
TITLEBLOCK
   6
CONTINUOUS
   0
POLYLINE
   5
7F8
100
AcDbEntity
   8
TITLEBLOCK
   6
CONTINUOUS
  62
      7
100
AcDb2dPolyline
  66
      1
  10
0.0
  20
0.0
  30
0.0
  70
      1
  75
      5
   0
VERTEX
   5
7F9
100
AcDbEntity
   8
TITLEBLOCK
   6
CONTINUOUS
  62
      7
100
AcDbVertex
100
AcDb2dVertex
  10
-3.49987
  20
32.85131
  30
0.0
   0
VERTEX
   5
7FA
100
AcDbEntity
   8
TITLEBLOCK
   6
CONTINUOUS
  62
      7
100
AcDbVertex
100
AcDb2dVertex
  10
-1.5
  20
0.0
  30
0.0
   0
VERTEX
   5
7FB
100
AcDbEntity
   8
TITLEBLOCK
   6
CONTINUOUS
  62
      7
100
AcDbVertex
100
AcDb2dVertex
  10
-2.505
  20
0.0
  30
0.0
   0
VERTEX
   5
7FC
100
AcDbEntity
   8
TITLEBLOCK
   6
CONTINUOUS
  62
      7
100
AcDbVertex
100
AcDb2dVertex
  10
-4.50612
  20
32.85131
  30
0.0
   0
SEQEND
   5
7FD
100
AcDbEntity
   8
TITLEBLOCK
   6
CONTINUOUS
   0
LWPOLYLINE
   5
7FE
100
AcDbEntity
   8
TITLEBLOCK
   6
CONTINUOUS
  62
      1
100
AcDbPolyline
  90
         5
  70
    129
  10
-21.71862
  20
8.0
  10
-3.28863
  20
8.0
  10
-3.28863
  20
6.0
  10
-21.71862
  20
6.0
  10
-21.71862
  20
8.0
   0
CIRCLE
   5
7FF
100
AcDbEntity
   8
TITLEBLOCK
   6
CONTINUOUS
  62
      1
100
AcDbCircle
  10
-4.85042
  20
7.0
  30
0.0
  40
0.28125
   0
INSERT
   5
800
100
AcDbEntity
   8
TITLEBLOCK
100
AcDbBlockReference
   2
*G1
  10
23.29974
  20
22.85958
  30
0.0
   0
CIRCLE
   5
801
100
AcDbEntity
   8
TITLEBLOCK
   6
CONTINUOUS
  62
      1
100
AcDbCircle
  10
-5.85042
  20
7.0
  30
0.0
  40
0.28125
   0
INSERT
   5
802
100
AcDbEntity
   8
TITLEBLOCK
100
AcDbBlockReference
   2
*G2
  10
23.29974
  20
22.85958
  30
0.0
   0
CIRCLE
   5
803
100
AcDbEntity
   8
TITLEBLOCK
   6
CONTINUOUS
  62
      1
100
AcDbCircle
  10
-6.85042
  20
7.0
  30
0.0
  40
0.28125
   0
INSERT
   5
804
100
AcDbEntity
   8
TITLEBLOCK
100
AcDbBlockReference
   2
*G3
  10
23.29974
  20
22.85958
  30
0.0
   0
CIRCLE
   5
805
100
AcDbEntity
   8
TITLEBLOCK
   6
CONTINUOUS
  62
      1
100
AcDbCircle
  10
-7.85042
  20
7.0
  30
0.0
  40
0.28125
   0
INSERT
   5
806
100
AcDbEntity
   8
TITLEBLOCK
100
AcDbBlockReference
   2
*G4
  10
23.29974
  20
22.85958
  30
0.0
   0
CIRCLE
   5
807
100
AcDbEntity
   8
TITLEBLOCK
   6
CONTINUOUS
  62
      1
100
AcDbCircle
  10
-8.85042
  20
7.0
  30
0.0
  40
0.28125
   0
INSERT
   5
808
100
AcDbEntity
   8
TITLEBLOCK
100
AcDbBlockReference
   2
*G5
  10
23.29974
  20
22.85958
  30
0.0
   0
CIRCLE
   5
809
100
AcDbEntity
   8
TITLEBLOCK
   6
CONTINUOUS
  62
      1
100
AcDbCircle
  10
-9.85042
  20
7.0
  30
0.0
  40
0.28125
   0
INSERT
   5
80A
100
AcDbEntity
   8
TITLEBLOCK
100
AcDbBlockReference
   2
*G6
  10
23.29974
  20
22.85958
  30
0.0
   0
CIRCLE
   5
80B
100
AcDbEntity
   8
TITLEBLOCK
   6
CONTINUOUS
  62
      1
100
AcDbCircle
  10
-10.85042
  20
7.0
  30
0.0
  40
0.28125
   0
INSERT
   5
80C
100
AcDbEntity
   8
TITLEBLOCK
100
AcDbBlockReference
   2
*G7
  10
23.29974
  20
22.85958
  30
0.0
   0
CIRCLE
   5
80D
100
AcDbEntity
   8
TITLEBLOCK
   6
CONTINUOUS
  62
      1
100
AcDbCircle
  10
-11.85042
  20
7.0
  30
0.0
  40
0.28125
   0
INSERT
   5
80E
100
AcDbEntity
   8
TITLEBLOCK
100
AcDbBlockReference
   2
*G8
  10
23.29974
  20
22.85958
  30
0.0
   0
CIRCLE
   5
80F
100
AcDbEntity
   8
TITLEBLOCK
   6
CONTINUOUS
  62
      1
100
AcDbCircle
  10
-12.85042
  20
7.0
  30
0.0
  40
0.28125
   0
INSERT
   5
810
100
AcDbEntity
   8
TITLEBLOCK
100
AcDbBlockReference
   2
*G9
  10
23.29974
  20
22.85958
  30
0.0
   0
CIRCLE
   5
811
100
AcDbEntity
   8
TITLEBLOCK
   6
CONTINUOUS
  62
      1
100
AcDbCircle
  10
-13.85042
  20
7.0
  30
0.0
  40
0.28125
   0
INSERT
   5
812
100
AcDbEntity
   8
TITLEBLOCK
100
AcDbBlockReference
   2
*G10
  10
23.29974
  20
22.85958
  30
0.0
   0
CIRCLE
   5
813
100
AcDbEntity
   8
TITLEBLOCK
   6
CONTINUOUS
  62
      1
100
AcDbCircle
  10
-14.85042
  20
7.0
  30
0.0
  40
0.28125
   0
INSERT
   5
814
100
AcDbEntity
   8
TITLEBLOCK
100
AcDbBlockReference
   2
*G11
  10
23.29974
  20
22.85958
  30
0.0
   0
CIRCLE
   5
815
100
AcDbEntity
   8
TITLEBLOCK
   6
CONTINUOUS
  62
      1
100
AcDbCircle
  10
-15.85042
  20
7.0
  30
0.0
  40
0.28125
   0
INSERT
   5
816
100
AcDbEntity
   8
TITLEBLOCK
100
AcDbBlockReference
   2
*G12
  10
23.29974
  20
22.85958
  30
0.0
   0
POLYLINE
   5
817
100
AcDbEntity
   8
TITLEBLOCK
   6
CONTINUOUS
  62
      7
100
AcDb2dPolyline
  66
      1
  10
0.0
  20
0.0
  30
0.0
  70
      1
  75
      5
   0
VERTEX
   5
818
100
AcDbEntity
   8
TITLEBLOCK
   6
CONTINUOUS
  62
      7
100
AcDbVertex
100
AcDb2dVertex
  10
-22.12705
  20
6.0
  30
0.0
   0
VERTEX
   5
819
100
AcDbEntity
   8
TITLEBLOCK
   6
CONTINUOUS
  62
      7
100
AcDbVertex
100
AcDb2dVertex
  10
-2.87049
  20
6.0
  30
0.0
   0
VERTEX
   5
81A
100
AcDbEntity
   8
TITLEBLOCK
   6
CONTINUOUS
  62
      7
100
AcDbVertex
100
AcDb2dVertex
  10
-2.74866
  20
4.0
  30
0.0
   0
VERTEX
   5
81B
100
AcDbEntity
   8
TITLEBLOCK
   6
CONTINUOUS
  62
      7
100
AcDbVertex
100
AcDb2dVertex
  10
-22.24965
  20
4.0
  30
0.0
   0
SEQEND
   5
81C
100
AcDbEntity
   8
TITLEBLOCK
   6
CONTINUOUS
   0
LWPOLYLINE
   5
81D
100
AcDbEntity
   8
TITLEBLOCK
   6
CONTINUOUS
  62
      1
100
AcDbPolyline
  90
         5
  70
    129
  10
-22.12705
  20
6.0
  10
-19.36862
  20
6.0
  10
-19.36862
  20
5.75
  10
-22.12705
  20
5.75
  10
-22.12705
  20
6.0
   0
LWPOLYLINE
   5
81E
100
AcDbEntity
   8
TITLEBLOCK
   6
CONTINUOUS
  62
      1
100
AcDbPolyline
  90
         5
  70
    129
  10
-5.61369
  20
6.0
  10
-2.85526
  20
6.0
  10
-2.85526
  20
5.75
  10
-5.61369
  20
5.75
  10
-5.61369
  20
6.0
   0
LWPOLYLINE
   5
81F
100
AcDbEntity
   8
TITLEBLOCK
   6
CONTINUOUS
  62
      7
100
AcDbPolyline
  90
         5
  70
    129
  10
-24.99987
  20
0.25
  10
-23.49987
  20
0.25
  10
-23.49987
  20
0.0
  10
-24.99987
  20
0.0
  10
-24.99987
  20
0.25
   0
LWPOLYLINE
   5
820
100
AcDbEntity
   8
TITLEBLOCK
   6
CONTINUOUS
  62
      7
100
AcDbPolyline
  90
         5
  70
    129
  10
-1.5
  20
0.25
  10
0.0
  20
0.25
  10
0.0
  20
0.0
  10
-1.5
  20
0.0
  10
-1.5
  20
0.25
   0
LWPOLYLINE
   5
821
100
AcDbEntity
   8
TITLEBLOCK
   6
CONTINUOUS
  62
      7
100
AcDbPolyline
  90
         5
  70
    129
  10
22.75736
  20
33.0
  10
24.75736
  20
33.0
  10
24.75736
  20
0.0
  10
22.75736
  20
0.0
  10
22.75736
  20
33.0
   0
LWPOLYLINE
   5
822
100
AcDbEntity
   8
TITLEBLOCK
   6
CONTINUOUS
  62
      7
100
AcDbPolyline
  90
         5
  70
    129
  10
22.75736
  20
34.0
  10
46.75736
  20
34.0
  10
46.75736
  20
33.0
  10
22.75736
  20
33.0
  10
22.75736
  20
34.0
   0
LWPOLYLINE
   5
823
100
AcDbEntity
   8
TITLEBLOCK
   6
CONTINUOUS
  62
      7
100
AcDbPolyline
  90
         5
  70
    129
  10
44.75736
  20
33.0
  10
46.75736
  20
33.0
  10
46.75736
  20
0.0
  10
44.75736
  20
0.0
  10
44.75736
  20
33.0
   0
LWPOLYLINE
   5
824
100
AcDbEntity
   8
TITLEBLOCK
   6
CONTINUOUS
  62
      7
100
AcDbPolyline
  90
         5
  70
    129
  10
24.75736
  20
6.0
  10
44.75736
  20
6.0
  10
44.75736
  20
4.0
  10
24.75736
  20
4.0
  10
24.75736
  20
6.0
   0
LWPOLYLINE
   5
825
100
AcDbEntity
   8
TITLEBLOCK
   6
CONTINUOUS
  62
      7
100
AcDbPolyline
  90
         5
  70
    129
  10
24.75736
  20
28.0
  10
44.75736
  20
28.0
  10
44.75736
  20
26.0
  10
24.75736
  20
26.0
  10
24.75736
  20
28.0
   0
INSERT
   5
826
100
AcDbEntity
   8
TITLEBLOCK
100
AcDbBlockReference
   2
*G13
  10
23.29974
  20
22.85958
  30
0.0
   0
LINE
   5
827
100
AcDbEntity
   8
TITLEBLOCK
   6
CONTINUOUS
  62
      3
100
AcDbLine
  10
33.55736
  20
7.0
  30
0.0
  11
35.91736
  21
7.0
  31
0.0
   0
LWPOLYLINE
   5
828
100
AcDbEntity
   8
TITLEBLOCK
   6
CONTINUOUS
  62
      1
100
AcDbPolyline
  90
         5
  70
    129
  10
33.25736
  20
33.0
  10
36.25736
  20
33.0
  10
36.25736
  20
28.0
  10
33.25736
  20
28.0
  10
33.25736
  20
33.0
   0
LWPOLYLINE
   5
829
100
AcDbEntity
   8
TITLEBLOCK
   6
CONTINUOUS
  62
      1
100
AcDbPolyline
  90
         5
  70
    129
  10
31.75736
  20
33.0
  10
37.75736
  20
33.0
  10
37.75736
  20
32.625
  10
31.75736
  20
32.625
  10
31.75736
  20
33.0
   0
CIRCLE
   5
82A
100
AcDbEntity
   8
TITLEBLOCK
   6
CONTINUOUS
  62
      1
100
AcDbCircle
  10
34.75736
  20
31.5
  30
0.0
  40
0.53125
   0
INSERT
   5
82B
100
AcDbEntity
   8
TITLEBLOCK
100
AcDbBlockReference
   2
*G14
  10
23.29974
  20
22.85958
  30
0.0
   0
POLYLINE
   5
82C
100
AcDbEntity
   8
TITLEBLOCK
   6
CONTINUOUS
  62
      7
100
AcDb2dPolyline
  66
      1
  10
0.0
  20
0.0
  30
0.0
  70
      1
  75
      5
   0
VERTEX
   5
82D
100
AcDbEntity
   8
TITLEBLOCK
   6
CONTINUOUS
  62
      7
100
AcDbVertex
100
AcDb2dVertex
  10
-20.7785
  20
28.0
  30
0.0
   0
VERTEX
   5
82E
100
AcDbEntity
   8
TITLEBLOCK
   6
CONTINUOUS
  62
      7
100
AcDbVertex
100
AcDb2dVertex
  10
-4.21061
  20
28.0
  30
0.0
   0
VERTEX
   5
82F
100
AcDbEntity
   8
TITLEBLOCK
   6
CONTINUOUS
  62
      7
100
AcDbVertex
100
AcDb2dVertex
  10
-4.08878
  20
26.0
  30
0.0
   0
VERTEX
   5
830
100
AcDbEntity
   8
TITLEBLOCK
   6
CONTINUOUS
  62
      7
100
AcDbVertex
100
AcDb2dVertex
  10
-20.90109
  20
26.0
  30
0.0
   0
SEQEND
   5
831
100
AcDbEntity
   8
TITLEBLOCK
   6
CONTINUOUS
   0
LWPOLYLINE
   5
832
100
AcDbEntity
   8
TITLEBLOCK
   6
CONTINUOUS
  62
      7
100
AcDbPolyline
  90
         5
  70
    129
  10
-7.60042
  20
42.2625
  10
-6.10042
  20
42.2625
  10
-6.10042
  20
6.2625
  10
-7.60042
  20
6.2625
  10
-7.60042
  20
42.2625
   0
LWPOLYLINE
   5
833
100
AcDbEntity
   8
TITLEBLOCK
   6
CONTINUOUS
  62
      7
100
AcDbPolyline
  90
         5
  70
    129
  10
34.00736
  20
42.0
  10
35.50736
  20
42.0
  10
35.50736
  20
6.0
  10
34.00736
  20
6.0
  10
34.00736
  20
42.0
   0
LINE
   5
834
100
AcDbEntity
   8
TITLEBLOCK
   6
CONTINUOUS
  62
      5
100
AcDbLine
  10
22.75736
  20
34.25
  30
0.0
  11
22.75736
  21
52.9125
  31
0.0
   0
LINE
   5
835
100
AcDbEntity
   8
TITLEBLOCK
   6
CONTINUOUS
  62
      5
100
AcDbLine
  10
46.75736
  20
34.25
  30
0.0
  11
46.75736
  21
52.9125
  31
0.0
   0
LINE
   5
836
100
AcDbEntity
   8
TITLEBLOCK
   6
CONTINUOUS
  62
      5
100
AcDbLine
  10
22.50736
  20
52.4125
  30
0.0
  11
22.75736
  21
52.4125
  31
0.0
   0
LINE
   5
837
100
AcDbEntity
   8
TITLEBLOCK
   6
CONTINUOUS
  62
      5
100
AcDbLine
  10
46.75736
  20
52.4125
  30
0.0
  11
47.00736
  21
52.4125
  31
0.0
   0
LINE
   5
839
100
AcDbEntity
   8
TITLEBLOCK
  62
      5
100
AcDbLine
  10
22.93414
  20
52.58928
  30
0.0
  11
22.58058
  21
52.23572
  31
0.0
   0
LINE
   5
83A
100
AcDbEntity
   8
TITLEBLOCK
  62
      5
100
AcDbLine
  10
46.58058
  20
52.23572
  30
0.0
  11
46.93414
  21
52.58928
  31
0.0
   0
LINE
   5
838
100
AcDbEntity
   8
TITLEBLOCK
   6
CONTINUOUS
  62
      5
100
AcDbLine
  10
22.75736
  20
52.4125
  30
0.0
  11
46.75736
  21
52.4125
  31
0.0
   0
INSERT
   5
83B
100
AcDbEntity
   8
TITLEBLOCK
100
AcDbBlockReference
   2
*G15
  10
23.29974
  20
22.85958
  30
0.0
   0
LINE
   5
83C
100
AcDbEntity
   8
TITLEBLOCK
   6
CONTINUOUS
  62
      5
100
AcDbLine
  10
34.75736
  20
43.26571
  30
0.0
  11
34.75736
  21
45.7125
  31
0.0
   0
LINE
   5
83D
100
AcDbEntity
   8
TITLEBLOCK
   6
CONTINUOUS
  62
      5
100
AcDbLine
  10
46.75736
  20
34.25
  30
0.0
  11
46.75736
  21
45.7125
  31
0.0
   0
LINE
   5
83E
100
AcDbEntity
   8
TITLEBLOCK
   6
CONTINUOUS
  62
      5
100
AcDbLine
  10
34.50736
  20
45.2125
  30
0.0
  11
34.75736
  21
45.2125
  31
0.0
   0
LINE
   5
83F
100
AcDbEntity
   8
TITLEBLOCK
   6
CONTINUOUS
  62
      5
100
AcDbLine
  10
46.75736
  20
45.2125
  30
0.0
  11
47.00736
  21
45.2125
  31
0.0
   0
LINE
   5
841
100
AcDbEntity
   8
TITLEBLOCK
  62
      5
100
AcDbLine
  10
34.93414
  20
45.38928
  30
0.0
  11
34.58058
  21
45.03572
  31
0.0
   0
LINE
   5
842
100
AcDbEntity
   8
TITLEBLOCK
  62
      5
100
AcDbLine
  10
46.58058
  20
45.03572
  30
0.0
  11
46.93414
  21
45.38928
  31
0.0
   0
LINE
   5
840
100
AcDbEntity
   8
TITLEBLOCK
   6
CONTINUOUS
  62
      5
100
AcDbLine
  10
34.75736
  20
45.2125
  30
0.0
  11
46.75736
  21
45.2125
  31
0.0
   0
INSERT
   5
843
100
AcDbEntity
   8
TITLEBLOCK
100
AcDbBlockReference
   2
*G16
  10
23.29974
  20
22.85958
  30
0.0
   0
LINE
   5
844
100
AcDbEntity
   8
TITLEBLOCK
   6
CONTINUOUS
  62
      5
100
AcDbLine
  10
47.00736
  20
34.0
  30
0.0
  11
65.35
  21
34.0
  31
0.0
   0
LINE
   5
845
100
AcDbEntity
   8
TITLEBLOCK
   6
CONTINUOUS
  62
      5
100
AcDbLine
  10
47.00736
  20
0.0
  30
0.0
  11
65.35
  21
0.0
  31
0.0
   0
LINE
   5
846
100
AcDbEntity
   8
TITLEBLOCK
   6
CONTINUOUS
  62
      5
100
AcDbLine
  10
64.85
  20
34.25
  30
0.0
  11
64.85
  21
34.0
  31
0.0
   0
LINE
   5
847
100
AcDbEntity
   8
TITLEBLOCK
   6
CONTINUOUS
  62
      5
100
AcDbLine
  10
64.85
  20
0.0
  30
0.0
  11
64.85
  21
-0.25
  31
0.0
   0
LINE
   5
849
100
AcDbEntity
   8
TITLEBLOCK
  62
      5
100
AcDbLine
  10
65.02678
  20
33.82322
  30
0.0
  11
64.67322
  21
34.17678
  31
0.0
   0
LINE
   5
84A
100
AcDbEntity
   8
TITLEBLOCK
  62
      5
100
AcDbLine
  10
64.67322
  20
0.17678
  30
0.0
  11
65.02678
  21
-0.17678
  31
0.0
   0
LINE
   5
848
100
AcDbEntity
   8
TITLEBLOCK
   6
CONTINUOUS
  62
      5
100
AcDbLine
  10
64.85
  20
34.0
  30
0.0
  11
64.85
  21
0.0
  31
0.0
   0
INSERT
   5
84B
100
AcDbEntity
   8
TITLEBLOCK
100
AcDbBlockReference
   2
*G17
  10
23.29974
  20
22.85958
  30
0.0
   0
LINE
   5
84C
100
AcDbEntity
   8
TITLEBLOCK
   6
CONTINUOUS
  62
      5
100
AcDbLine
  10
47.00736
  20
33.0
  30
0.0
  11
58.15
  21
33.0
  31
0.0
   0
LINE
   5
84D
100
AcDbEntity
   8
TITLEBLOCK
   6
CONTINUOUS
  62
      5
100
AcDbLine
  10
47.00736
  20
0.0
  30
0.0
  11
58.15
  21
0.0
  31
0.0
   0
LINE
   5
84E
100
AcDbEntity
   8
TITLEBLOCK
   6
CONTINUOUS
  62
      5
100
AcDbLine
  10
57.65
  20
33.25
  30
0.0
  11
57.65
  21
33.0
  31
0.0
   0
LINE
   5
84F
100
AcDbEntity
   8
TITLEBLOCK
   6
CONTINUOUS
  62
      5
100
AcDbLine
  10
57.65
  20
0.0
  30
0.0
  11
57.65
  21
-0.25
  31
0.0
   0
LINE
   5
851
100
AcDbEntity
   8
TITLEBLOCK
  62
      5
100
AcDbLine
  10
57.82678
  20
32.82322
  30
0.0
  11
57.47322
  21
33.17678
  31
0.0
   0
LINE
   5
852
100
AcDbEntity
   8
TITLEBLOCK
  62
      5
100
AcDbLine
  10
57.47322
  20
0.17678
  30
0.0
  11
57.82678
  21
-0.17678
  31
0.0
   0
LINE
   5
850
100
AcDbEntity
   8
TITLEBLOCK
   6
CONTINUOUS
  62
      5
100
AcDbLine
  10
57.65
  20
33.0
  30
0.0
  11
57.65
  21
0.0
  31
0.0
   0
INSERT
   5
853
100
AcDbEntity
   8
TITLEBLOCK
100
AcDbBlockReference
   2
*G18
  10
23.29974
  20
22.85958
  30
0.0
   0
LINE
   5
854
100
AcDbEntity
   8
TITLEBLOCK
   6
CONTINUOUS
  62
      5
100
AcDbLine
  10
45.00736
  20
6.0
  30
0.0
  11
52.15
  21
6.0
  31
0.0
   0
LINE
   5
855
100
AcDbEntity
   8
TITLEBLOCK
   6
CONTINUOUS
  62
      5
100
AcDbLine
  10
47.00736
  20
0.0
  30
0.0
  11
52.15
  21
0.0
  31
0.0
   0
LINE
   5
856
100
AcDbEntity
   8
TITLEBLOCK
   6
CONTINUOUS
  62
      5
100
AcDbLine
  10
51.65
  20
6.25
  30
0.0
  11
51.65
  21
6.0
  31
0.0
   0
LINE
   5
857
100
AcDbEntity
   8
TITLEBLOCK
   6
CONTINUOUS
  62
      5
100
AcDbLine
  10
51.65
  20
0.0
  30
0.0
  11
51.65
  21
-0.25
  31
0.0
   0
LINE
   5
859
100
AcDbEntity
   8
TITLEBLOCK
  62
      5
100
AcDbLine
  10
51.82678
  20
5.82322
  30
0.0
  11
51.47322
  21
6.17678
  31
0.0
   0
LINE
   5
85A
100
AcDbEntity
   8
TITLEBLOCK
  62
      5
100
AcDbLine
  10
51.47322
  20
0.17678
  30
0.0
  11
51.82678
  21
-0.17678
  31
0.0
   0
LINE
   5
858
100
AcDbEntity
   8
TITLEBLOCK
   6
CONTINUOUS
  62
      5
100
AcDbLine
  10
51.65
  20
6.0
  30
0.0
  11
51.65
  21
0.0
  31
0.0
   0
INSERT
   5
85B
100
AcDbEntity
   8
TITLEBLOCK
100
AcDbBlockReference
   2
*G19
  10
23.29974
  20
22.85958
  30
0.0
   0
LINE
   5
85C
100
AcDbEntity
   8
TITLEBLOCK
   6
CONTINUOUS
  62
      5
100
AcDbLine
  10
45.00736
  20
26.0
  30
0.0
  11
53.75
  21
26.0
  31
0.0
   0
LINE
   5
85D
100
AcDbEntity
   8
TITLEBLOCK
   6
CONTINUOUS
  62
      5
100
AcDbLine
  10
52.4
  20
0.0
  30
0.0
  11
53.75
  21
0.0
  31
0.0
   0
LINE
   5
85E
100
AcDbEntity
   8
TITLEBLOCK
   6
CONTINUOUS
  62
      5
100
AcDbLine
  10
53.25
  20
26.25
  30
0.0
  11
53.25
  21
26.0
  31
0.0
   0
LINE
   5
85F
100
AcDbEntity
   8
TITLEBLOCK
   6
CONTINUOUS
  62
      5
100
AcDbLine
  10
53.25
  20
0.0
  30
0.0
  11
53.25
  21
-0.25
  31
0.0
   0
LINE
   5
861
100
AcDbEntity
   8
TITLEBLOCK
  62
      5
100
AcDbLine
  10
53.42678
  20
25.82322
  30
0.0
  11
53.07322
  21
26.17678
  31
0.0
   0
LINE
   5
862
100
AcDbEntity
   8
TITLEBLOCK
  62
      5
100
AcDbLine
  10
53.07322
  20
0.17678
  30
0.0
  11
53.42678
  21
-0.17678
  31
0.0
   0
LINE
   5
860
100
AcDbEntity
   8
TITLEBLOCK
   6
CONTINUOUS
  62
      5
100
AcDbLine
  10
53.25
  20
26.0
  30
0.0
  11
53.25
  21
0.0
  31
0.0
   0
INSERT
   5
863
100
AcDbEntity
   8
TITLEBLOCK
100
AcDbBlockReference
   2
*G20
  10
23.29974
  20
22.85958
  30
0.0
   0
LINE
   5
864
100
AcDbEntity
   8
TITLEBLOCK
   6
CONTINUOUS
  62
      5
100
AcDbLine
  10
24.50736
  20
28.0
  30
0.0
  11
15.15
  21
28.0
  31
0.0
   0
LINE
   5
865
100
AcDbEntity
   8
TITLEBLOCK
   6
CONTINUOUS
  62
      5
100
AcDbLine
  10
24.50736
  20
26.0
  30
0.0
  11
15.15
  21
26.0
  31
0.0
   0
LINE
   5
866
100
AcDbEntity
   8
TITLEBLOCK
   6
CONTINUOUS
  62
      5
100
AcDbLine
  10
15.65
  20
28.25
  30
0.0
  11
15.65
  21
28.0
  31
0.0
   0
LINE
   5
867
100
AcDbEntity
   8
TITLEBLOCK
   6
CONTINUOUS
  62
      5
100
AcDbLine
  10
15.65
  20
26.0
  30
0.0
  11
15.65
  21
25.75
  31
0.0
   0
LINE
   5
869
100
AcDbEntity
   8
TITLEBLOCK
  62
      5
100
AcDbLine
  10
15.82678
  20
27.82322
  30
0.0
  11
15.47322
  21
28.17678
  31
0.0
   0
LINE
   5
86A
100
AcDbEntity
   8
TITLEBLOCK
  62
      5
100
AcDbLine
  10
15.47322
  20
26.17678
  30
0.0
  11
15.82678
  21
25.82322
  31
0.0
   0
LINE
   5
868
100
AcDbEntity
   8
TITLEBLOCK
   6
CONTINUOUS
  62
      5
100
AcDbLine
  10
15.65
  20
28.0
  30
0.0
  11
15.65
  21
26.0
  31
0.0
   0
INSERT
   5
86B
100
AcDbEntity
   8
TITLEBLOCK
100
AcDbBlockReference
   2
*G21
  10
23.29974
  20
22.85958
  30
0.0
   0
LINE
   5
86C
100
AcDbEntity
   8
TITLEBLOCK
   6
CONTINUOUS
  62
      5
100
AcDbLine
  10
-23.49987
  20
-0.25
  30
0.0
  11
-23.49987
  21
-8.8875
  31
0.0
   0
LINE
   5
86D
100
AcDbEntity
   8
TITLEBLOCK
   6
CONTINUOUS
  62
      5
100
AcDbLine
  10
-1.5
  20
-0.25
  30
0.0
  11
-1.5
  21
-8.8875
  31
0.0
   0
LINE
   5
86E
100
AcDbEntity
   8
TITLEBLOCK
   6
CONTINUOUS
  62
      5
100
AcDbLine
  10
-23.74987
  20
-8.3875
  30
0.0
  11
-23.49987
  21
-8.3875
  31
0.0
   0
LINE
   5
86F
100
AcDbEntity
   8
TITLEBLOCK
   6
CONTINUOUS
  62
      5
100
AcDbLine
  10
-1.5
  20
-8.3875
  30
0.0
  11
-1.25
  21
-8.3875
  31
0.0
   0
LINE
   5
871
100
AcDbEntity
   8
TITLEBLOCK
  62
      5
100
AcDbLine
  10
-23.32309
  20
-8.21072
  30
0.0
  11
-23.67665
  21
-8.56428
  31
0.0
   0
LINE
   5
872
100
AcDbEntity
   8
TITLEBLOCK
  62
      5
100
AcDbLine
  10
-1.67678
  20
-8.56428
  30
0.0
  11
-1.32322
  21
-8.21072
  31
0.0
   0
LINE
   5
870
100
AcDbEntity
   8
TITLEBLOCK
   6
CONTINUOUS
  62
      5
100
AcDbLine
  10
-23.49987
  20
-8.3875
  30
0.0
  11
-1.5
  21
-8.3875
  31
0.0
   0
INSERT
   5
873
100
AcDbEntity
   8
TITLEBLOCK
100
AcDbBlockReference
   2
*G22
  10
23.29974
  20
22.85958
  30
0.0
   0
LINE
   5
874
100
AcDbEntity
   8
TITLEBLOCK
   6
CONTINUOUS
  62
      5
100
AcDbLine
  10
-21.5
  20
34.25
  30
0.0
  11
-21.5
  21
49.1125
  31
0.0
   0
LINE
   5
875
100
AcDbEntity
   8
TITLEBLOCK
   6
CONTINUOUS
  62
      5
100
AcDbLine
  10
-3.49987
  20
34.25
  30
0.0
  11
-3.49987
  21
49.1125
  31
0.0
   0
LINE
   5
876
100
AcDbEntity
   8
TITLEBLOCK
   6
CONTINUOUS
  62
      5
100
AcDbLine
  10
-21.75
  20
48.6125
  30
0.0
  11
-21.5
  21
48.6125
  31
0.0
   0
LINE
   5
877
100
AcDbEntity
   8
TITLEBLOCK
   6
CONTINUOUS
  62
      5
100
AcDbLine
  10
-3.49987
  20
48.6125
  30
0.0
  11
-3.24987
  21
48.6125
  31
0.0
   0
LINE
   5
879
100
AcDbEntity
   8
TITLEBLOCK
  62
      5
100
AcDbLine
  10
-21.32322
  20
48.78928
  30
0.0
  11
-21.67678
  21
48.43572
  31
0.0
   0
LINE
   5
87A
100
AcDbEntity
   8
TITLEBLOCK
  62
      5
100
AcDbLine
  10
-3.67665
  20
48.43572
  30
0.0
  11
-3.32309
  21
48.78928
  31
0.0
   0
LINE
   5
878
100
AcDbEntity
   8
TITLEBLOCK
   6
CONTINUOUS
  62
      5
100
AcDbLine
  10
-21.5
  20
48.6125
  30
0.0
  11
-3.49987
  21
48.6125
  31
0.0
   0
INSERT
   5
87B
100
AcDbEntity
   8
TITLEBLOCK
100
AcDbBlockReference
   2
*G23
  10
23.29974
  20
22.85958
  30
0.0
   0
LINE
   5
87C
100
AcDbEntity
   8
TITLEBLOCK
   6
CONTINUOUS
  62
      5
100
AcDbLine
  10
-22.16032
  20
4.0
  30
0.0
  11
-31.25
  21
4.0
  31
0.0
   0
LINE
   5
87D
100
AcDbEntity
   8
TITLEBLOCK
   6
CONTINUOUS
  62
      5
100
AcDbLine
  10
-23.74987
  20
0.0
  30
0.0
  11
-31.25
  21
0.0
  31
0.0
   0
LINE
   5
87E
100
AcDbEntity
   8
TITLEBLOCK
   6
CONTINUOUS
  62
      5
100
AcDbLine
  10
-30.75
  20
4.25
  30
0.0
  11
-30.75
  21
4.0
  31
0.0
   0
LINE
   5
87F
100
AcDbEntity
   8
TITLEBLOCK
   6
CONTINUOUS
  62
      5
100
AcDbLine
  10
-30.75
  20
0.0
  30
0.0
  11
-30.75
  21
-0.25
  31
0.0
   0
LINE
   5
881
100
AcDbEntity
   8
TITLEBLOCK
  62
      5
100
AcDbLine
  10
-30.57322
  20
3.82322
  30
0.0
  11
-30.92678
  21
4.17678
  31
0.0
   0
LINE
   5
882
100
AcDbEntity
   8
TITLEBLOCK
  62
      5
100
AcDbLine
  10
-30.92678
  20
0.17678
  30
0.0
  11
-30.57322
  21
-0.17678
  31
0.0
   0
LINE
   5
880
100
AcDbEntity
   8
TITLEBLOCK
   6
CONTINUOUS
  62
      5
100
AcDbLine
  10
-30.75
  20
4.0
  30
0.0
  11
-30.75
  21
0.0
  31
0.0
   0
INSERT
   5
883
100
AcDbEntity
   8
TITLEBLOCK
100
AcDbBlockReference
   2
*G24
  10
23.29974
  20
22.85958
  30
0.0
   0
LINE
   5
884
100
AcDbEntity
   8
TITLEBLOCK
   6
CONTINUOUS
  62
      5
100
AcDbLine
  10
-21.15109
  20
26.0
  30
0.0
  11
-36.45
  21
26.0
  31
0.0
   0
LINE
   5
885
100
AcDbEntity
   8
TITLEBLOCK
   6
CONTINUOUS
  62
      5
100
AcDbLine
  10
-23.74987
  20
0.0
  30
0.0
  11
-36.45
  21
0.0
  31
0.0
   0
LINE
   5
886
100
AcDbEntity
   8
TITLEBLOCK
   6
CONTINUOUS
  62
      5
100
AcDbLine
  10
-35.95
  20
26.25
  30
0.0
  11
-35.95
  21
26.0
  31
0.0
   0
LINE
   5
887
100
AcDbEntity
   8
TITLEBLOCK
   6
CONTINUOUS
  62
      5
100
AcDbLine
  10
-35.95
  20
0.0
  30
0.0
  11
-35.95
  21
-0.25
  31
0.0
   0
LINE
   5
889
100
AcDbEntity
   8
TITLEBLOCK
  62
      5
100
AcDbLine
  10
-35.77322
  20
25.82322
  30
0.0
  11
-36.12678
  21
26.17678
  31
0.0
   0
LINE
   5
88A
100
AcDbEntity
   8
TITLEBLOCK
  62
      5
100
AcDbLine
  10
-36.12678
  20
0.17678
  30
0.0
  11
-35.77322
  21
-0.17678
  31
0.0
   0
LINE
   5
888
100
AcDbEntity
   8
TITLEBLOCK
   6
CONTINUOUS
  62
      5
100
AcDbLine
  10
-35.95
  20
26.0
  30
0.0
  11
-35.95
  21
0.0
  31
0.0
   0
INSERT
   5
88B
100
AcDbEntity
   8
TITLEBLOCK
100
AcDbBlockReference
   2
*G25
  10
23.29974
  20
22.85958
  30
0.0
   0
TEXT
   5
88C
100
AcDbEntity
   8
TITLEBLOCK
  62
      5
100
AcDbText
  10
-31.15
  20
64.28045
  30
0.0
  40
3.2
   1
Tubing/Bar Roller  - Side Views
  41
0.6
  11
-31.15
  21
64.28045
  31
0.0
100
AcDbText
  73
      3
   0
ENDSEC
   0
SECTION
   2
OBJECTS
   0
DICTIONARY
   5
19
100
AcDbDictionary
   3
ACAD_GROUP
350
1A
   3
ACAD_MLINESTYLE
350
1B
   0
DICTIONARY
   5
1A
102
{ACAD_REACTORS
330
19
102
}
100
AcDbDictionary
   0
DICTIONARY
   5
1B
102
{ACAD_REACTORS
330
19
102
}
100
AcDbDictionary
   3
STANDARD
350
1C
   0
MLINESTYLE
   5
1C
102
{ACAD_REACTORS
330
1B
102
}
100
AcDbMlineStyle
   2
STANDARD
  70
      0
   3

  62
      0
  51
90.0
  52
90.0
  71
      2
  49
0.5
  62
    256
   6
BYLAYER
  49
-0.5
  62
    256
   6
BYLAYER
   0
ENDSEC
   0
EOF