   0
SECTION
   2
HEADER
   9
$ACADVER
   1
AC1014
   9
$ACADMAINTVER
  70
      0
   9
$DWGCODEPAGE
   3
ANSI_1252
   9
$INSBASE
  10
0.0
  20
0.0
  30
0.0
   9
$EXTMIN
  10
-21.75068
  20
-6.24849
  30
0.0
   9
$EXTMAX
  10
46.94376
  20
39.75151
  30
0.0
   9
$LIMMIN
  10
0.0
  20
0.0
   9
$LIMMAX
  10
0.0
  20
0.0
   9
$ORTHOMODE
  70
      0
   9
$REGENMODE
  70
      1
   9
$FILLMODE
  70
      1
   9
$QTEXTMODE
  70
      0
   9
$MIRRTEXT
  70
      1
   9
$DRAGMODE
  70
      2
   9
$LTSCALE
  40
2.0
   9
$OSMODE
  70
      0
   9
$ATTMODE
  70
      1
   9
$TEXTSIZE
  40
0.2
   9
$TRACEWID
  40
0.05
   9
$TEXTSTYLE
   7
STANDARD
   9
$CLAYER
   8
0
   9
$CELTYPE
   6
CONTINUOUS
   9
$CECOLOR
  62
    256
   9
$CELTSCALE
  40
1.0
   9
$DELOBJ
  70
      1
   9
$DISPSILH
  70
      0
   9
$DIMSCALE
  40
1.0
   9
$DIMASZ
  40
0.18
   9
$DIMEXO
  40
0.0625
   9
$DIMDLI
  40
0.38
   9
$DIMRND
  40
0.0
   9
$DIMDLE
  40
0.0
   9
$DIMEXE
  40
0.18
   9
$DIMTP
  40
0.0
   9
$DIMTM
  40
0.0
   9
$DIMTXT
  40
0.18
   9
$DIMCEN
  40
0.09
   9
$DIMTSZ
  40
0.0
   9
$DIMTOL
  70
      0
   9
$DIMLIM
  70
      0
   9
$DIMTIH
  70
      1
   9
$DIMTOH
  70
      1
   9
$DIMSE1
  70
      0
   9
$DIMSE2
  70
      0
   9
$DIMTAD
  70
      0
   9
$DIMZIN
  70
      0
   9
$DIMBLK
   1

   9
$DIMASO
  70
      1
   9
$DIMSHO
  70
      1
   9
$DIMPOST
   1

   9
$DIMAPOST
   1

   9
$DIMALT
  70
      0
   9
$DIMALTD
  70
      2
   9
$DIMALTF
  40
25.4
   9
$DIMLFAC
  40
1.0
   9
$DIMTOFL
  70
      0
   9
$DIMTVP
  40
0.0
   9
$DIMTIX
  70
      0
   9
$DIMSOXD
  70
      0
   9
$DIMSAH
  70
      0
   9
$DIMBLK1
   1

   9
$DIMBLK2
   1

   9
$DIMSTYLE
   2
STANDARD
   9
$DIMCLRD
  70
      0
   9
$DIMCLRE
  70
      0
   9
$DIMCLRT
  70
      0
   9
$DIMTFAC
  40
1.0
   9
$DIMGAP
  40
0.09
   9
$DIMJUST
  70
      0
   9
$DIMSD1
  70
      0
   9
$DIMSD2
  70
      0
   9
$DIMTOLJ
  70
      1
   9
$DIMTZIN
  70
      0
   9
$DIMALTZ
  70
      0
   9
$DIMALTTZ
  70
      0
   9
$DIMFIT
  70
      3
   9
$DIMUPT
  70
      0
   9
$DIMUNIT
  70
      2
   9
$DIMDEC
  70
      4
   9
$DIMTDEC
  70
      4
   9
$DIMALTU
  70
      2
   9
$DIMALTTD
  70
      2
   9
$DIMTXSTY
   7
STANDARD
   9
$DIMAUNIT
  70
      0
   9
$LUNITS
  70
      2
   9
$LUPREC
  70
      4
   9
$SKETCHINC
  40
0.1
   9
$FILLETRAD
  40
0.0
   9
$AUNITS
  70
      0
   9
$AUPREC
  70
      0
   9
$MENU
   1
acad
   9
$ELEVATION
  40
0.0
   9
$PELEVATION
  40
0.0
   9
$THICKNESS
  40
0.0
   9
$LIMCHECK
  70
      0
   9
$BLIPMODE
  70
      1
   9
$CHAMFERA
  40
0.0
   9
$CHAMFERB
  40
0.0
   9
$CHAMFERC
  40
0.0
   9
$CHAMFERD
  40
0.0
   9
$SKPOLY
  70
      0
   9
$TDCREATE
  40
2452107.871261574
   9
$TDUPDATE
  40
2452107.871261574
   9
$TDINDWG
  40
0.0000000000
   9
$TDUSRTIMER
  40
0.0000000000
   9
$USRTIMER
  70
      1
   9
$ANGBASE
  50
0.0
   9
$ANGDIR
  70
      0
   9
$PDMODE
  70
      0
   9
$PDSIZE
  40
0.0
   9
$PLINEWID
  40
0.0
   9
$COORDS
  70
      0
   9
$SPLFRAME
  70
      0
   9
$SPLINETYPE
  70
      6
   9
$SPLINESEGS
  70
      8
   9
$ATTDIA
  70
      0
   9
$ATTREQ
  70
      1
   9
$HANDLING
  70
      1
   9
$HANDSEED
   5
43B
   9
$SURFTAB1
  70
      6
   9
$SURFTAB2
  70
      6
   9
$SURFTYPE
  70
      6
   9
$SURFU
  70
      6
   9
$SURFV
  70
      6
   9
$UCSNAME
   2

   9
$UCSORG
  10
0.0
  20
0.0
  30
0.0
   9
$UCSXDIR
  10
1.0
  20
0.0
  30
0.0
   9
$UCSYDIR
  10
0.0
  20
1.0
  30
0.0
   9
$PUCSNAME
   2

   9
$PUCSORG
  10
0.0
  20
0.0
  30
0.0
   9
$PUCSXDIR
  10
1.0
  20
0.0
  30
0.0
   9
$PUCSYDIR
  10
0.0
  20
1.0
  30
0.0
   9
$USERI1
  70
      0
   9
$USERI2
  70
      0
   9
$USERI3
  70
      0
   9
$USERI4
  70
      0
   9
$USERI5
  70
      0
   9
$USERR1
  40
0.0
   9
$USERR2
  40
0.0
   9
$USERR3
  40
0.0
   9
$USERR4
  40
0.0
   9
$USERR5
  40
0.0
   9
$WORLDVIEW
  70
      1
   9
$SHADEDGE
  70
      3
   9
$SHADEDIF
  70
     70
   9
$TILEMODE
  70
      1
   9
$MAXACTVP
  70
     16
   9
$PINSBASE
  10
0.0
  20
0.0
  30
0.0
   9
$PLIMCHECK
  70
      0
   9
$PEXTMIN
  10
1.000000E+20
  20
1.000000E+20
  30
1.000000E+20
   9
$PEXTMAX
  10
-1.000000E+20
  20
-1.000000E+20
  30
-1.000000E+20
   9
$PLIMMIN
  10
0.0
  20
0.0
   9
$PLIMMAX
  10
12.0
  20
9.0
   9
$UNITMODE
  70
      0
   9
$VISRETAIN
  70
      0
   9
$PLINEGEN
  70
      1
   9
$PSLTSCALE
  70
      0
   9
$TREEDEPTH
  70
   3020
   9
$PICKSTYLE
  70
      1
   9
$CMLSTYLE
   2
STANDARD
   9
$CMLJUST
  70
      0
   9
$CMLSCALE
  40
1.0
   9
$PROXYGRAPHICS
  70
      0
   9
$MEASUREMENT
  70
      0
   0
ENDSEC
   0
SECTION
   2
CLASSES
   0
CLASS
   1
LWPOLYLINE
   2
AcDbPolyline
   3
"AutoCAD"
  90
         0
280
      0
281
      1
   0
CLASS
   1
IMAGE
   2
AcDbRasterImage
   3
ISM
  90
       127
280
      0
281
      1
   0
CLASS
   1
OLE2FRAME
   2
AcDbOle2Frame
   3
""
  90
         0
280
      0
281
      1
   0
CLASS
   1
HATCH
   2
AcDbHatch
   3
"ACAD_SEDONA"
  90
         0
280
      0
281
      1
   0
CLASS
   1
DICTIONARYVAR
   2
AcDbDictionaryVar
   3
"AutoCAD"
  90
         0
280
      0
281
      0
   0
CLASS
   1
RASTERVARIABLES
   2
AcDbRasterVariables
   3
ISM
  90
         0
280
      0
281
      0
   0
CLASS
   1
IMAGEDEF
   2
AcDbRasterImageDef
   3
ISM
  90
         0
280
      0
281
      0
   0
CLASS
   1
IMAGEDEF_REACTOR
   2
AcDbRasterImageDefReactor
   3
ISM
  90
         1
280
      0
281
      0
   0
CLASS
   1
IDBUFFER
   2
AcDbIdBuffer
   3
"Acad"
  90
         0
280
      0
281
      0
   0
CLASS
   1
SPATIAL_FILTER
   2
AcDbSpatialFilter
   3
"Acad"
  90
         0
280
      0
281
      0
   0
CLASS
   1
XRECORD
   2
AcDbXrecord
   3
"<Built In>"
  90
         0
280
      0
281
      0
   0
CLASS
   1
SORTENTSTABLE
   2
AcDbSortentsTable
   3
"AutoCAD"
  90
         0
280
      0
281
      0
   0
CLASS
   1
LAYER_INDEX
   2
AcDbLayerIndex
   3
"Acad"
  90
         0
280
      0
281
      0
   0
CLASS
   1
SPATIAL_INDEX
   2
AcDbSpatialIndex
   3
"Acad"
  90
         0
280
      0
281
      0
   0
CLASS
   1
OBJECT_PTR
   2
CAseDLPNTableRecord
   3
"ASE-LPNTableRecord"
  90
         1
280
      0
281
      0
   0
ENDSEC
   0
SECTION
   2
TABLES
   0
TABLE
   2
VPORT
   5
7
100
AcDbSymbolTable
  70
      1
   0
VPORT
   5
15
100
AcDbSymbolTableRecord
100
AcDbViewportTableRecord
   2
*ACTIVE
  70
      0
  10
0.0
  20
0.0
  11
1.0
  21
1.0
  12
12.59654
  22
16.75151
  13
0.0
  23
0.0
  14
1.0
  24
1.0
  15
0.0
  25
0.0
  16
0.0
  26
0.0
  36
1.0
  17
0.0
  27
0.0
  37
0.0
  40
46.0
  41
0.688564
  42
50.0
  43
0.0
  44
0.0
  50
0.0
  51
0.0
  71
      0
  72
    100
  73
      1
  74
      1
  75
      0
  76
      0
  77
      0
  78
      0
   0
ENDTAB
   0
TABLE
   2
LTYPE
   5
4
100
AcDbSymbolTable
  70
     13
   0
LTYPE
   5
11
100
AcDbSymbolTableRecord
100
AcDbLinetypeTableRecord
   2
BYBLOCK
  70
      0
   3

  72
     65
  73
      0
  40
0.0
   0
LTYPE
   5
12
100
AcDbSymbolTableRecord
100
AcDbLinetypeTableRecord
   2
BYLAYER
  70
      0
   3

  72
     65
  73
      0
  40
0.0
   0
LTYPE
   5
13
100
AcDbSymbolTableRecord
100
AcDbLinetypeTableRecord
   2
CONTINUOUS
  70
      0
   3
Solid line
  72
     65
  73
      0
  40
0.0
   0
LTYPE
   5
58
100
AcDbSymbolTableRecord
100
AcDbLinetypeTableRecord
   2
VECTORWORKS_DASH_01
  70
      0
   3
(unavailable)
  72
     65
  73
      2
  40
0.024948
  49
0.016632
  74
      0
  49
-0.008316
  74
      0
   0
LTYPE
   5
59
100
AcDbSymbolTableRecord
100
AcDbLinetypeTableRecord
   2
VECTORWORKS_DASH_02
  70
      0
   3
(unavailable)
  72
     65
  73
      2
  40
0.049911
  49
0.033279
  74
      0
  49
-0.016632
  74
      0
   0
LTYPE
   5
5A
100
AcDbSymbolTableRecord
100
AcDbLinetypeTableRecord
   2
VECTORWORKS_DASH_03
  70
      0
   3
(unavailable)
  72
     65
  73
      4
  40
0.133087
  49
0.083191
  74
      0
  49
-0.016632
  74
      0
  49
0.016632
  74
      0
  49
-0.016632
  74
      0
   0
LTYPE
   5
5B
100
AcDbSymbolTableRecord
100
AcDbLinetypeTableRecord
   2
VECTORWORKS_DASH_04
  70
      0
   3
(unavailable)
  72
     65
  73
      6
  40
0.166351
  49
0.083191
  74
      0
  49
-0.016632
  74
      0
  49
0.016632
  74
      0
  49
-0.016632
  74
      0
  49
0.016632
  74
      0
  49
-0.016632
  74
      0
   0
LTYPE
   5
5C
100
AcDbSymbolTableRecord
100
AcDbLinetypeTableRecord
   2
VECTORWORKS_DASH_05
  70
      0
   3
(unavailable)
  72
     65
  73
      2
  40
0.016632
  49
0.000015
  74
      0
  49
-0.016617
  74
      0
   0
LTYPE
   5
5D
100
AcDbSymbolTableRecord
100
AcDbLinetypeTableRecord
   2
VECTORWORKS_DASH_06
  70
      0
   3
(unavailable)
  72
     65
  73
      4
  40
0.066544
  49
0.033279
  74
      0
  49
-0.016632
  74
      0
  49
0.000015
  74
      0
  49
-0.016617
  74
      0
   0
LTYPE
   5
5E
100
AcDbSymbolTableRecord
100
AcDbLinetypeTableRecord
   2
VECTORWORKS_DASH_07
  70
      0
   3
(unavailable)
  72
     65
  73
      6
  40
0.083176
  49
0.033279
  74
      0
  49
-0.016632
  74
      0
  49
0.000015
  74
      0
  49
-0.016617
  74
      0
  49
0.000015
  74
      0
  49
-0.016617
  74
      0
   0
LTYPE
   5
5F
100
AcDbSymbolTableRecord
100
AcDbLinetypeTableRecord
   2
VECTORWORKS_DASH_08
  70
      0
   3
(unavailable)
  72
     65
  73
      6
  40
0.116455
  49
0.033279
  74
      0
  49
-0.016632
  74
      0
  49
0.033279
  74
      0
  49
-0.016632
  74
      0
  49
0.000015
  74
      0
  49
-0.016617
  74
      0
   0
LTYPE
   5
60
100
AcDbSymbolTableRecord
100
AcDbLinetypeTableRecord
   2
VECTORWORKS_DASH_09
  70
      0
   3
(unavailable)
  72
     65
  73
      4
  40
1.0
  49
0.75
  74
      0
  49
-0.055557
  74
      0
  49
0.138885
  74
      0
  49
-0.055557
  74
      0
   0
LTYPE
   5
61
100
AcDbSymbolTableRecord
100
AcDbLinetypeTableRecord
   2
VECTORWORKS_DASH_10
  70
      0
   3
(unavailable)
  72
     65
  73
      6
  40
1.1875
  49
0.75
  74
      0
  49
-0.055557
  74
      0
  49
0.138885
  74
      0
  49
-0.055557
  74
      0
  49
0.125
  74
      0
  49
-0.0625
  74
      0
   0
ENDTAB
   0
TABLE
   2
LAYER
   5
2
100
AcDbSymbolTable
  70
      5
   0
LAYER
   5
14
100
AcDbSymbolTableRecord
100
AcDbLayerTableRecord
   2
0
  70
      0
  62
      7
   6
CONTINUOUS
   0
LAYER
   5
62
100
AcDbSymbolTableRecord
100
AcDbLayerTableRecord
   2
MAIN
  70
     64
  62
      7
   6
CONTINUOUS
   0
LAYER
   5
63
100
AcDbSymbolTableRecord
100
AcDbLayerTableRecord
   2
TITLEBLOCK
  70
     64
  62
      7
   6
CONTINUOUS
   0
LAYER
   5
64
100
AcDbSymbolTableRecord
100
AcDbLayerTableRecord
   2
DIMENSIONS
  70
     64
  62
      7
   6
CONTINUOUS
   0
LAYER
   5
65
100
AcDbSymbolTableRecord
100
AcDbLayerTableRecord
   2
NOTES
  70
     64
  62
      7
   6
CONTINUOUS
   0
ENDTAB
   0
TABLE
   2
STYLE
   5
3
100
AcDbSymbolTable
  70
      1
   0
STYLE
   5
17
100
AcDbSymbolTableRecord
100
AcDbTextStyleTableRecord
   2
STANDARD
  70
      0
  40
0.0
  41
0.6
  50
0.0
  71
      0
  42
0.0
   3
txt
   4

   0
ENDTAB
   0
TABLE
   2
VIEW
   5
5
100
AcDbSymbolTable
  70
      0
   0
ENDTAB
   0
TABLE
   2
UCS
   5
6
100
AcDbSymbolTable
  70
      0
   0
ENDTAB
   0
TABLE
   2
APPID
   5
8
100
AcDbSymbolTable
  70
      1
   0
APPID
   5
16
100
AcDbSymbolTableRecord
100
AcDbRegAppTableRecord
   2
ACAD
  70
      0
   0
ENDTAB
   0
TABLE
   2
DIMSTYLE
   5
9
100
AcDbSymbolTable
  70
      1
   0
DIMSTYLE
105
18
100
AcDbSymbolTableRecord
100
AcDbDimStyleTableRecord
   2
STANDARD
  70
      0
   3

   4

   5

   6

   7

  40
1.0
  41
0.18
  42
0.0625
  43
0.38
  44
0.18
  45
0.0
  46
0.0
  47
0.0
  48
0.0
140
0.18
141
0.09
142
0.0
143
25.4
144
1.0
145
0.0
146
1.0
147
0.09
  71
      0
  72
      0
  73
      1
  74
      1
  75
      0
  76
      0
  77
      0
  78
      0
170
      0
171
      2
172
      0
173
      0
174
      0
175
      0
176
      0
177
      0
178
      0
270
      2
271
      4
272
      4
273
      2
274
      2
340
17
275
      0
280
      0
281
      0
282
      0
283
      1
284
      0
285
      0
286
      0
287
      0
288
      0
   0
ENDTAB
   0
TABLE
   2
BLOCK_RECORD
   5
1
100
AcDbSymbolTable
  70
     59
   0
BLOCK_RECORD
   5
A
100
AcDbSymbolTableRecord
100
AcDbBlockTableRecord
   2
*MODEL_SPACE
   0
BLOCK_RECORD
   5
B
100
AcDbSymbolTableRecord
100
AcDbBlockTableRecord
   2
*PAPER_SPACE
   0
BLOCK_RECORD
   5
1D
100
AcDbSymbolTableRecord
100
AcDbBlockTableRecord
   2
*G0
   0
BLOCK_RECORD
   5
1E
100
AcDbSymbolTableRecord
100
AcDbBlockTableRecord
   2
*G1
   0
BLOCK_RECORD
   5
1F
100
AcDbSymbolTableRecord
100
AcDbBlockTableRecord
   2
*G2
   0
BLOCK_RECORD
   5
20
100
AcDbSymbolTableRecord
100
AcDbBlockTableRecord
   2
*G3
   0
BLOCK_RECORD
   5
21
100
AcDbSymbolTableRecord
100
AcDbBlockTableRecord
   2
*G4
   0
BLOCK_RECORD
   5
22
100
AcDbSymbolTableRecord
100
AcDbBlockTableRecord
   2
*G5
   0
BLOCK_RECORD
   5
23
100
AcDbSymbolTableRecord
100
AcDbBlockTableRecord
   2
*G6
   0
BLOCK_RECORD
   5
24
100
AcDbSymbolTableRecord
100
AcDbBlockTableRecord
   2
*G7
   0
BLOCK_RECORD
   5
25
100
AcDbSymbolTableRecord
100
AcDbBlockTableRecord
   2
*G8
   0
BLOCK_RECORD
   5
26
100
AcDbSymbolTableRecord
100
AcDbBlockTableRecord
   2
*G9
   0
BLOCK_RECORD
   5
27
100
AcDbSymbolTableRecord
100
AcDbBlockTableRecord
   2
*G10
   0
BLOCK_RECORD
   5
28
100
AcDbSymbolTableRecord
100
AcDbBlockTableRecord
   2
*G11
   0
BLOCK_RECORD
   5
29
100
AcDbSymbolTableRecord
100
AcDbBlockTableRecord
   2
*G12
   0
BLOCK_RECORD
   5
2A
100
AcDbSymbolTableRecord
100
AcDbBlockTableRecord
   2
*G13
   0
BLOCK_RECORD
   5
2B
100
AcDbSymbolTableRecord
100
AcDbBlockTableRecord
   2
*G14
   0
BLOCK_RECORD
   5
2C
100
AcDbSymbolTableRecord
100
AcDbBlockTableRecord
   2
*G15
   0
BLOCK_RECORD
   5
2D
100
AcDbSymbolTableRecord
100
AcDbBlockTableRecord
   2
*G16
   0
BLOCK_RECORD
   5
2E
100
AcDbSymbolTableRecord
100
AcDbBlockTableRecord
   2
*G17
   0
BLOCK_RECORD
   5
2F
100
AcDbSymbolTableRecord
100
AcDbBlockTableRecord
   2
*G18
   0
BLOCK_RECORD
   5
30
100
AcDbSymbolTableRecord
100
AcDbBlockTableRecord
   2
*G19
   0
BLOCK_RECORD
   5
31
100
AcDbSymbolTableRecord
100
AcDbBlockTableRecord
   2
*G20
   0
BLOCK_RECORD
   5
32
100
AcDbSymbolTableRecord
100
AcDbBlockTableRecord
   2
*G21
   0
BLOCK_RECORD
   5
33
100
AcDbSymbolTableRecord
100
AcDbBlockTableRecord
   2
*G22
   0
BLOCK_RECORD
   5
34
100
AcDbSymbolTableRecord
100
AcDbBlockTableRecord
   2
*G23
   0
BLOCK_RECORD
   5
35
100
AcDbSymbolTableRecord
100
AcDbBlockTableRecord
   2
*G24
   0
BLOCK_RECORD
   5
36
100
AcDbSymbolTableRecord
100
AcDbBlockTableRecord
   2
*G25
   0
BLOCK_RECORD
   5
37
100
AcDbSymbolTableRecord
100
AcDbBlockTableRecord
   2
*G26
   0
BLOCK_RECORD
   5
38
100
AcDbSymbolTableRecord
100
AcDbBlockTableRecord
   2
*G27
   0
BLOCK_RECORD
   5
39
100
AcDbSymbolTableRecord
100
AcDbBlockTableRecord
   2
*G28
   0
BLOCK_RECORD
   5
3A
100
AcDbSymbolTableRecord
100
AcDbBlockTableRecord
   2
*G29
   0
BLOCK_RECORD
   5
3B
100
AcDbSymbolTableRecord
100
AcDbBlockTableRecord
   2
*G30
   0
BLOCK_RECORD
   5
3C
100
AcDbSymbolTableRecord
100
AcDbBlockTableRecord
   2
*G31
   0
BLOCK_RECORD
   5
3D
100
AcDbSymbolTableRecord
100
AcDbBlockTableRecord
   2
*G32
   0
BLOCK_RECORD
   5
3E
100
AcDbSymbolTableRecord
100
AcDbBlockTableRecord
   2
*G33
   0
BLOCK_RECORD
   5
3F
100
AcDbSymbolTableRecord
100
AcDbBlockTableRecord
   2
*G34
   0
BLOCK_RECORD
   5
40
100
AcDbSymbolTableRecord
100
AcDbBlockTableRecord
   2
*G35
   0
BLOCK_RECORD
   5
41
100
AcDbSymbolTableRecord
100
AcDbBlockTableRecord
   2
*G36
   0
BLOCK_RECORD
   5
42
100
AcDbSymbolTableRecord
100
AcDbBlockTableRecord
   2
*G37
   0
BLOCK_RECORD
   5
43
100
AcDbSymbolTableRecord
100
AcDbBlockTableRecord
   2
*G38
   0
BLOCK_RECORD
   5
44
100
AcDbSymbolTableRecord
100
AcDbBlockTableRecord
   2
*G39
   0
BLOCK_RECORD
   5
45
100
AcDbSymbolTableRecord
100
AcDbBlockTableRecord
   2
*G40
   0
BLOCK_RECORD
   5
46
100
AcDbSymbolTableRecord
100
AcDbBlockTableRecord
   2
*G41
   0
BLOCK_RECORD
   5
47
100
AcDbSymbolTableRecord
100
AcDbBlockTableRecord
   2
*G42
   0
BLOCK_RECORD
   5
48
100
AcDbSymbolTableRecord
100
AcDbBlockTableRecord
   2
*G43
   0
BLOCK_RECORD
   5
49
100
AcDbSymbolTableRecord
100
AcDbBlockTableRecord
   2
*G44
   0
BLOCK_RECORD
   5
4A
100
AcDbSymbolTableRecord
100
AcDbBlockTableRecord
   2
*G45
   0
BLOCK_RECORD
   5
4B
100
AcDbSymbolTableRecord
100
AcDbBlockTableRecord
   2
*G46
   0
BLOCK_RECORD
   5
4C
100
AcDbSymbolTableRecord
100
AcDbBlockTableRecord
   2
*G47
   0
BLOCK_RECORD
   5
4D
100
AcDbSymbolTableRecord
100
AcDbBlockTableRecord
   2
*G48
   0
BLOCK_RECORD
   5
4E
100
AcDbSymbolTableRecord
100
AcDbBlockTableRecord
   2
*G49
   0
BLOCK_RECORD
   5
4F
100
AcDbSymbolTableRecord
100
AcDbBlockTableRecord
   2
*G50
   0
BLOCK_RECORD
   5
50
100
AcDbSymbolTableRecord
100
AcDbBlockTableRecord
   2
*G51
   0
BLOCK_RECORD
   5
51
100
AcDbSymbolTableRecord
100
AcDbBlockTableRecord
   2
*G52
   0
BLOCK_RECORD
   5
52
100
AcDbSymbolTableRecord
100
AcDbBlockTableRecord
   2
*G53
   0
BLOCK_RECORD
   5
53
100
AcDbSymbolTableRecord
100
AcDbBlockTableRecord
   2
*G54
   0
BLOCK_RECORD
   5
54
100
AcDbSymbolTableRecord
100
AcDbBlockTableRecord
   2
*G55
   0
BLOCK_RECORD
   5
55
100
AcDbSymbolTableRecord
100
AcDbBlockTableRecord
   2
*G56
   0
BLOCK_RECORD
   5
56
100
AcDbSymbolTableRecord
100
AcDbBlockTableRecord
   2
*G57
   0
BLOCK_RECORD
   5
57
100
AcDbSymbolTableRecord
100
AcDbBlockTableRecord
   2
*G58
   0
ENDTAB
   0
ENDSEC
   0
SECTION
   2
BLOCKS
   0
BLOCK
   5
D
100
AcDbEntity
   8
0
100
AcDbBlockBegin
   2
*MODEL_SPACE
  70
      0
  10
0.0
  20
0.0
  30
0.0
   3
*MODEL_SPACE
   1

   0
ENDBLK
   5
E
100
AcDbEntity
   8
0
100
AcDbBlockEnd
   0
BLOCK
   5
F
100
AcDbEntity
  67
      1
   8
0
100
AcDbBlockBegin
   2
*PAPER_SPACE
  70
      0
  10
0.0
  20
0.0
  30
0.0
   3
*PAPER_SPACE
   1

   0
ENDBLK
   5
10
100
AcDbEntity
  67
      1
   8
0
100
AcDbBlockEnd
   0
BLOCK
   5
66
100
AcDbEntity
   8
MAIN
100
AcDbBlockBegin
   2
*G0
  70
      1
  10
0.0
  20
0.0
  30
0.0
   3

   1

   0
LINE
   5
67
100
AcDbEntity
   8
MAIN
   6
CONTINUOUS
  62
      5
100
AcDbLine
  10
-10.4742
  20
0.62586
  30
0.0
  11
-9.9742
  21
0.62586
  31
0.0
   0
LINE
   5
68
100
AcDbEntity
   8
MAIN
   6
CONTINUOUS
  62
      5
100
AcDbLine
  10
-10.2242
  20
0.37586
  30
0.0
  11
-10.2242
  21
0.87586
  31
0.0
   0
LINE
   5
69
100
AcDbEntity
   8
MAIN
   6
CONTINUOUS
  62
      5
100
AcDbLine
  10
-12.9742
  20
0.62586
  30
0.0
  11
-10.5992
  21
0.62586
  31
0.0
   0
LINE
   5
6A
100
AcDbEntity
   8
MAIN
   6
CONTINUOUS
  62
      5
100
AcDbLine
  10
-9.8492
  20
0.62586
  30
0.0
  11
-7.4742
  21
0.62586
  31
0.0
   0
LINE
   5
6B
100
AcDbEntity
   8
MAIN
   6
CONTINUOUS
  62
      5
100
AcDbLine
  10
-10.2242
  20
3.37586
  30
0.0
  11
-10.2242
  21
1.00086
  31
0.0
   0
LINE
   5
6C
100
AcDbEntity
   8
MAIN
   6
CONTINUOUS
  62
      5
100
AcDbLine
  10
-10.2242
  20
0.25086
  30
0.0
  11
-10.2242
  21
-2.12414
  31
0.0
   0
ENDBLK
   5
6D
100
AcDbEntity
   8
MAIN
100
AcDbBlockEnd
   0
BLOCK
   5
6E
100
AcDbEntity
   8
MAIN
100
AcDbBlockBegin
   2
*G1
  70
      1
  10
0.0
  20
0.0
  30
0.0
   3

   1

   0
LINE
   5
6F
100
AcDbEntity
   8
MAIN
   6
CONTINUOUS
  62
      5
100
AcDbLine
  10
-10.4742
  20
2.06336
  30
0.0
  11
-9.9742
  21
2.06336
  31
0.0
   0
LINE
   5
70
100
AcDbEntity
   8
MAIN
   6
CONTINUOUS
  62
      5
100
AcDbLine
  10
-10.2242
  20
1.81336
  30
0.0
  11
-10.2242
  21
2.31336
  31
0.0
   0
ENDBLK
   5
71
100
AcDbEntity
   8
MAIN
100
AcDbBlockEnd
   0
BLOCK
   5
72
100
AcDbEntity
   8
MAIN
100
AcDbBlockBegin
   2
*G2
  70
      1
  10
0.0
  20
0.0
  30
0.0
   3

   1

   0
LINE
   5
73
100
AcDbEntity
   8
MAIN
   6
CONTINUOUS
  62
      5
100
AcDbLine
  10
-9.0367
  20
0.62586
  30
0.0
  11
-8.5367
  21
0.62586
  31
0.0
   0
LINE
   5
74
100
AcDbEntity
   8
MAIN
   6
CONTINUOUS
  62
      5
100
AcDbLine
  10
-8.7867
  20
0.37586
  30
0.0
  11
-8.7867
  21
0.87586
  31
0.0
   0
ENDBLK
   5
75
100
AcDbEntity
   8
MAIN
100
AcDbBlockEnd
   0
BLOCK
   5
76
100
AcDbEntity
   8
MAIN
100
AcDbBlockBegin
   2
*G3
  70
      1
  10
0.0
  20
0.0
  30
0.0
   3

   1

   0
LINE
   5
77
100
AcDbEntity
   8
MAIN
   6
CONTINUOUS
  62
      5
100
AcDbLine
  10
-10.4742
  20
-0.81164
  30
0.0
  11
-9.9742
  21
-0.81164
  31
0.0
   0
LINE
   5
78
100
AcDbEntity
   8
MAIN
   6
CONTINUOUS
  62
      5
100
AcDbLine
  10
-10.2242
  20
-1.06164
  30
0.0
  11
-10.2242
  21
-0.56164
  31
0.0
   0
ENDBLK
   5
79
100
AcDbEntity
   8
MAIN
100
AcDbBlockEnd
   0
BLOCK
   5
7A
100
AcDbEntity
   8
MAIN
100
AcDbBlockBegin
   2
*G4
  70
      1
  10
0.0
  20
0.0
  30
0.0
   3

   1

   0
LINE
   5
7B
100
AcDbEntity
   8
MAIN
   6
CONTINUOUS
  62
      5
100
AcDbLine
  10
-11.9117
  20
0.62586
  30
0.0
  11
-11.4117
  21
0.62586
  31
0.0
   0
LINE
   5
7C
100
AcDbEntity
   8
MAIN
   6
CONTINUOUS
  62
      5
100
AcDbLine
  10
-11.6617
  20
0.37586
  30
0.0
  11
-11.6617
  21
0.87586
  31
0.0
   0
ENDBLK
   5
7D
100
AcDbEntity
   8
MAIN
100
AcDbBlockEnd
   0
BLOCK
   5
7E
100
AcDbEntity
   8
MAIN
100
AcDbBlockBegin
   2
*G5
  70
      1
  10
0.0
  20
0.0
  30
0.0
   3

   1

   0
TEXT
   5
7F
100
AcDbEntity
   8
MAIN
  62
      5
100
AcDbText
  10
-5.09117
  20
-2.5408
  30
0.0
  40
0.53334
   1
ÿ 5.000"
  41
0.6
  11
-5.09117
  21
-2.5408
  31
0.0
100
AcDbText
  73
      3
   0
ENDBLK
   5
80
100
AcDbEntity
   8
MAIN
100
AcDbBlockEnd
   0
BLOCK
   5
81
100
AcDbEntity
   8
MAIN
100
AcDbBlockBegin
   2
*G6
  70
      1
  10
0.0
  20
0.0
  30
0.0
   3

   1

   0
TEXT
   5
82
100
AcDbEntity
   8
MAIN
  62
      5
100
AcDbText
  10
-5.99117
  20
-4.2908
  30
0.0
  40
0.53334
   1
ÿ 1.750"
  41
0.6
  11
-5.99117
  21
-4.2908
  31
0.0
100
AcDbText
  73
      3
   0
ENDBLK
   5
83
100
AcDbEntity
   8
MAIN
100
AcDbBlockEnd
   0
BLOCK
   5
84
100
AcDbEntity
   8
MAIN
100
AcDbBlockBegin
   2
*G7
  70
      1
  10
0.0
  20
0.0
  30
0.0
   3

   1

   0
TEXT
   5
85
100
AcDbEntity
   8
MAIN
  62
      5
100
AcDbText
  10
-4.92828
  20
-0.4908
  30
0.0
  40
0.53334
   1
ÿ 2.875"
  41
0.6
  11
-4.92828
  21
-0.4908
  31
0.0
100
AcDbText
  73
      3
   0
ENDBLK
   5
86
100
AcDbEntity
   8
MAIN
100
AcDbBlockEnd
   0
BLOCK
   5
87
100
AcDbEntity
   8
MAIN
100
AcDbBlockBegin
   2
*G8
  70
      1
  10
0.0
  20
0.0
  30
0.0
   3

   1

   0
LINE
   5
88
100
AcDbEntity
   8
MAIN
   6
CONTINUOUS
  62
      5
100
AcDbLine
  10
-9.0367
  20
0.62586
  30
0.0
  11
-8.5367
  21
0.62586
  31
0.0
   0
LINE
   5
89
100
AcDbEntity
   8
MAIN
   6
CONTINUOUS
  62
      5
100
AcDbLine
  10
-8.7867
  20
0.37586
  30
0.0
  11
-8.7867
  21
0.87586
  31
0.0
   0
ENDBLK
   5
8A
100
AcDbEntity
   8
MAIN
100
AcDbBlockEnd
   0
BLOCK
   5
8B
100
AcDbEntity
   8
MAIN
100
AcDbBlockBegin
   2
*G9
  70
      1
  10
0.0
  20
0.0
  30
0.0
   3

   1

   0
TEXT
   5
8C
100
AcDbEntity
   8
MAIN
  62
      5
100
AcDbText
  10
-4.6293
  20
3.1092
  30
0.0
  40
0.53334
   1
ÿ 0.438"
  41
0.6
  11
-4.6293
  21
3.1092
  31
0.0
100
AcDbText
  73
      3
   0
ENDBLK
   5
8D
100
AcDbEntity
   8
MAIN
100
AcDbBlockEnd
   0
BLOCK
   5
8E
100
AcDbEntity
   8
MAIN
100
AcDbBlockBegin
   2
*G10
  70
      1
  10
0.0
  20
0.0
  30
0.0
   3

   1

   0
TEXT
   5
8F
100
AcDbEntity
   8
MAIN
  62
      5
100
AcDbText
  10
-24.13404
  20
14.13016
  30
0.0
  40
0.53334
   1
5.000"
  41
0.6
  11
-24.13404
  21
14.13016
  31
0.0
100
AcDbText
  73
      3
   0
ENDBLK
   5
90
100
AcDbEntity
   8
MAIN
100
AcDbBlockEnd
   0
BLOCK
   5
91
100
AcDbEntity
   8
MAIN
100
AcDbBlockBegin
   2
*G11
  70
      1
  10
0.0
  20
0.0
  30
0.0
   3

   1

   0
TEXT
   5
92
100
AcDbEntity
   8
MAIN
  62
      5
100
AcDbText
  10
-27.59071
  20
12.76364
  30
0.0
  40
0.53334
   1
0.313"
  50
90.0
  41
0.6
  11
-27.59071
  21
12.76364
  31
0.0
100
AcDbText
  73
      3
   0
ENDBLK
   5
93
100
AcDbEntity
   8
MAIN
100
AcDbBlockEnd
   0
BLOCK
   5
94
100
AcDbEntity
   8
MAIN
100
AcDbBlockBegin
   2
*G12
  70
      1
  10
0.0
  20
0.0
  30
0.0
   3

   1

   0
TEXT
   5
95
100
AcDbEntity
   8
MAIN
  62
      5
100
AcDbText
  10
-27.59071
  20
7.91849
  30
0.0
  40
0.53334
   1
0.313"
  50
90.0
  41
0.6
  11
-27.59071
  21
7.91849
  31
0.0
100
AcDbText
  73
      3
   0
ENDBLK
   5
96
100
AcDbEntity
   8
MAIN
100
AcDbBlockEnd
   0
BLOCK
   5
97
100
AcDbEntity
   8
MAIN
100
AcDbBlockBegin
   2
*G13
  70
      1
  10
0.0
  20
0.0
  30
0.0
   3

   1

   0
TEXT
   5
98
100
AcDbEntity
   8
MAIN
  62
      5
100
AcDbText
  10
-18.19404
  20
10.00183
  30
0.0
  40
0.53334
   1
ÿ 1.500"
  41
0.6
  11
-18.19404
  21
10.00183
  31
0.0
100
AcDbText
  73
      3
   0
ENDBLK
   5
99
100
AcDbEntity
   8
MAIN
100
AcDbBlockEnd
   0
BLOCK
   5
9A
100
AcDbEntity
   8
MAIN
100
AcDbBlockBegin
   2
*G14
  70
      1
  10
0.0
  20
0.0
  30
0.0
   3

   1

   0
TEXT
   5
9B
100
AcDbEntity
   8
MAIN
  62
      5
100
AcDbText
  10
-8.27842
  20
14.43016
  30
0.0
  40
0.53334
   1
5.000"
  41
0.6
  11
-8.27842
  21
14.43016
  31
0.0
100
AcDbText
  73
      3
   0
ENDBLK
   5
9C
100
AcDbEntity
   8
MAIN
100
AcDbBlockEnd
   0
BLOCK
   5
9D
100
AcDbEntity
   8
MAIN
100
AcDbBlockBegin
   2
*G15
  70
      1
  10
0.0
  20
0.0
  30
0.0
   3

   1

   0
TEXT
   5
9E
100
AcDbEntity
   8
MAIN
  62
      5
100
AcDbText
  10
-11.44571
  20
13.05849
  30
0.0
  40
0.53334
   1
0.313"
  50
90.0
  41
0.6
  11
-11.44571
  21
13.05849
  31
0.0
100
AcDbText
  73
      3
   0
ENDBLK
   5
9F
100
AcDbEntity
   8
MAIN
100
AcDbBlockEnd
   0
BLOCK
   5
A0
100
AcDbEntity
   8
MAIN
100
AcDbBlockBegin
   2
*G16
  70
      1
  10
0.0
  20
0.0
  30
0.0
   3

   1

   0
TEXT
   5
A1
100
AcDbEntity
   8
MAIN
  62
      5
100
AcDbText
  10
-11.44571
  20
7.83849
  30
0.0
  40
0.53334
   1
0.313"
  50
90.0
  41
0.6
  11
-11.44571
  21
7.83849
  31
0.0
100
AcDbText
  73
      3
   0
ENDBLK
   5
A2
100
AcDbEntity
   8
MAIN
100
AcDbBlockEnd
   0
BLOCK
   5
A3
100
AcDbEntity
   8
MAIN
100
AcDbBlockBegin
   2
*G17
  70
      1
  10
0.0
  20
0.0
  30
0.0
   3

   1

   0
TEXT
   5
A4
100
AcDbEntity
   8
MAIN
  62
      5
100
AcDbText
  10
-1.97404
  20
9.83794
  30
0.0
  40
0.53334
   1
ÿ 2.000"
  41
0.6
  11
-1.97404
  21
9.83794
  31
0.0
100
AcDbText
  73
      3
   0
ENDBLK
   5
A5
100
AcDbEntity
   8
MAIN
100
AcDbBlockEnd
   0
BLOCK
   5
A6
100
AcDbEntity
   8
MAIN
100
AcDbBlockBegin
   2
*G18
  70
      1
  10
0.0
  20
0.0
  30
0.0
   3

   1

   0
TEXT
   5
A7
100
AcDbEntity
   8
MAIN
  62
      5
100
AcDbText
  10
-24.53065
  20
5.09016
  30
0.0
  40
0.53334
   1
5.000"
  41
0.6
  11
-24.53065
  21
5.09016
  31
0.0
100
AcDbText
  73
      3
   0
ENDBLK
   5
A8
100
AcDbEntity
   8
MAIN
100
AcDbBlockEnd
   0
BLOCK
   5
A9
100
AcDbEntity
   8
MAIN
100
AcDbBlockBegin
   2
*G19
  70
      1
  10
0.0
  20
0.0
  30
0.0
   3

   1

   0
TEXT
   5
AA
100
AcDbEntity
   8
MAIN
  62
      5
100
AcDbText
  10
-29.22571
  20
-0.97651
  30
0.0
  40
0.53334
   1
3.250"
  50
90.0
  41
0.6
  11
-29.22571
  21
-0.97651
  31
0.0
100
AcDbText
  73
      3
   0
ENDBLK
   5
AB
100
AcDbEntity
   8
MAIN
100
AcDbBlockEnd
   0
BLOCK
   5
AC
100
AcDbEntity
   8
MAIN
100
AcDbBlockBegin
   2
*G20
  70
      1
  10
0.0
  20
0.0
  30
0.0
   3

   1

   0
TEXT
   5
AD
100
AcDbEntity
   8
MAIN
  62
      5
100
AcDbText
  10
-27.57071
  20
2.01362
  30
0.0
  40
0.53334
   1
0.500"
  50
90.0
  41
0.6
  11
-27.57071
  21
2.01362
  31
0.0
100
AcDbText
  73
      3
   0
ENDBLK
   5
AE
100
AcDbEntity
   8
MAIN
100
AcDbBlockEnd
   0
BLOCK
   5
AF
100
AcDbEntity
   8
MAIN
100
AcDbBlockBegin
   2
*G21
  70
      1
  10
0.0
  20
0.0
  30
0.0
   3

   1

   0
TEXT
   5
B0
100
AcDbEntity
   8
MAIN
  62
      5
100
AcDbText
  10
-27.61093
  20
-4.32151
  30
0.0
  40
0.53334
   1
0.750"
  50
90.0
  41
0.6
  11
-27.61093
  21
-4.32151
  31
0.0
100
AcDbText
  73
      3
   0
ENDBLK
   5
B1
100
AcDbEntity
   8
MAIN
100
AcDbBlockEnd
   0
BLOCK
   5
B2
100
AcDbEntity
   8
MAIN
100
AcDbBlockBegin
   2
*G22
  70
      1
  10
0.0
  20
0.0
  30
0.0
   3

   1

   0
TEXT
   5
B3
100
AcDbEntity
   8
MAIN
  62
      5
100
AcDbText
  10
-20.64181
  20
-3.96151
  30
0.0
  40
0.53334
   1
0.313"
  50
90.0
  41
0.6
  11
-20.64181
  21
-3.96151
  31
0.0
100
AcDbText
  73
      3
   0
ENDBLK
   5
B4
100
AcDbEntity
   8
MAIN
100
AcDbBlockEnd
   0
BLOCK
   5
B5
100
AcDbEntity
   8
MAIN
100
AcDbBlockBegin
   2
*G23
  70
      1
  10
0.0
  20
0.0
  30
0.0
   3

   1

   0
TEXT
   5
B6
100
AcDbEntity
   8
MAIN
  62
      5
100
AcDbText
  10
-20.64571
  20
1.91849
  30
0.0
  40
0.53334
   1
1.000"
  50
90.0
  41
0.6
  11
-20.64571
  21
1.91849
  31
0.0
100
AcDbText
  73
      3
   0
ENDBLK
   5
B7
100
AcDbEntity
   8
MAIN
100
AcDbBlockEnd
   0
BLOCK
   5
B8
100
AcDbEntity
   8
MAIN
100
AcDbBlockBegin
   2
*G24
  70
      1
  10
0.0
  20
0.0
  30
0.0
   3

   1

   0
TEXT
   5
B9
100
AcDbEntity
   8
MAIN
  62
      5
100
AcDbText
  10
-27.86571
  20
-1.19526
  30
0.0
  40
0.53334
   1
0.688"
  50
90.0
  41
0.6
  11
-27.86571
  21
-1.19526
  31
0.0
100
AcDbText
  73
      3
   0
ENDBLK
   5
BA
100
AcDbEntity
   8
MAIN
100
AcDbBlockEnd
   0
BLOCK
   5
BB
100
AcDbEntity
   8
MAIN
100
AcDbBlockBegin
   2
*G25
  70
      1
  10
0.0
  20
0.0
  30
0.0
   3

   1

   0
TEXT
   5
BC
100
AcDbEntity
   8
MAIN
  62
      5
100
AcDbText
  10
-17.70564
  20
0.09516
  30
0.0
  40
0.53334
   1
90%%d
  50
90.0
  41
0.6
  11
-17.70564
  21
0.09516
  31
0.0
100
AcDbText
  73
      3
   0
ENDBLK
   5
BD
100
AcDbEntity
   8
MAIN
100
AcDbBlockEnd
   0
BLOCK
   5
BE
100
AcDbEntity
   8
MAIN
100
AcDbBlockBegin
   2
*G26
  70
      1
  10
0.0
  20
0.0
  30
0.0
   3

   1

   0
TEXT
   5
BF
100
AcDbEntity
   8
MAIN
  62
      5
100
AcDbText
  10
-24.53065
  20
3.61016
  30
0.0
  40
0.53334
   1
4.188"
  41
0.6
  11
-24.53065
  21
3.61016
  31
0.0
100
AcDbText
  73
      3
   0
ENDBLK
   5
C0
100
AcDbEntity
   8
MAIN
100
AcDbBlockEnd
   0
BLOCK
   5
C1
100
AcDbEntity
   8
MAIN
100
AcDbBlockBegin
   2
*G27
  70
      1
  10
0.0
  20
0.0
  30
0.0
   3

   1

   0
TEXT
   5
C2
100
AcDbEntity
   8
MAIN
  62
      5
100
AcDbText
  10
-24.53065
  20
-2.72984
  30
0.0
  40
0.53334
   1
3.960"
  41
0.6
  11
-24.53065
  21
-2.72984
  31
0.0
100
AcDbText
  73
      3
   0
ENDBLK
   5
C3
100
AcDbEntity
   8
MAIN
100
AcDbBlockEnd
   0
BLOCK
   5
C4
100
AcDbEntity
   8
MAIN
100
AcDbBlockBegin
   2
*G28
  70
      1
  10
0.0
  20
0.0
  30
0.0
   3

   1

   0
LINE
   5
C5
100
AcDbEntity
   8
MAIN
   6
CONTINUOUS
  62
      5
100
AcDbLine
  10
-12.78087
  20
-11.2411
  30
0.0
  11
-12.28087
  21
-11.2411
  31
0.0
   0
LINE
   5
C6
100
AcDbEntity
   8
MAIN
   6
CONTINUOUS
  62
      5
100
AcDbLine
  10
-12.53087
  20
-11.4911
  30
0.0
  11
-12.53087
  21
-10.9911
  31
0.0
   0
ENDBLK
   5
C7
100
AcDbEntity
   8
MAIN
100
AcDbBlockEnd
   0
BLOCK
   5
C8
100
AcDbEntity
   8
MAIN
100
AcDbBlockBegin
   2
*G29
  70
      1
  10
0.0
  20
0.0
  30
0.0
   3

   1

   0
LINE
   5
C9
100
AcDbEntity
   8
MAIN
   6
CONTINUOUS
  62
      5
100
AcDbLine
  10
-11.34337
  20
-12.6786
  30
0.0
  11
-10.84337
  21
-12.6786
  31
0.0
   0
LINE
   5
CA
100
AcDbEntity
   8
MAIN
   6
CONTINUOUS
  62
      5
100
AcDbLine
  10
-11.09337
  20
-12.9286
  30
0.0
  11
-11.09337
  21
-12.4286
  31
0.0
   0
ENDBLK
   5
CB
100
AcDbEntity
   8
MAIN
100
AcDbBlockEnd
   0
BLOCK
   5
CC
100
AcDbEntity
   8
MAIN
100
AcDbBlockBegin
   2
*G30
  70
      1
  10
0.0
  20
0.0
  30
0.0
   3

   1

   0
LINE
   5
CD
100
AcDbEntity
   8
MAIN
   6
CONTINUOUS
  62
      5
100
AcDbLine
  10
-12.78087
  20
-14.1161
  30
0.0
  11
-12.28087
  21
-14.1161
  31
0.0
   0
LINE
   5
CE
100
AcDbEntity
   8
MAIN
   6
CONTINUOUS
  62
      5
100
AcDbLine
  10
-12.53087
  20
-14.3661
  30
0.0
  11
-12.53087
  21
-13.8661
  31
0.0
   0
ENDBLK
   5
CF
100
AcDbEntity
   8
MAIN
100
AcDbBlockEnd
   0
BLOCK
   5
D0
100
AcDbEntity
   8
MAIN
100
AcDbBlockBegin
   2
*G31
  70
      1
  10
0.0
  20
0.0
  30
0.0
   3

   1

   0
LINE
   5
D1
100
AcDbEntity
   8
MAIN
   6
CONTINUOUS
  62
      5
100
AcDbLine
  10
-14.21837
  20
-12.6786
  30
0.0
  11
-13.71837
  21
-12.6786
  31
0.0
   0
LINE
   5
D2
100
AcDbEntity
   8
MAIN
   6
CONTINUOUS
  62
      5
100
AcDbLine
  10
-13.96837
  20
-12.9286
  30
0.0
  11
-13.96837
  21
-12.4286
  31
0.0
   0
ENDBLK
   5
D3
100
AcDbEntity
   8
MAIN
100
AcDbBlockEnd
   0
BLOCK
   5
D4
100
AcDbEntity
   8
MAIN
100
AcDbBlockBegin
   2
*G32
  70
      1
  10
0.0
  20
0.0
  30
0.0
   3

   1

   0
LINE
   5
D5
100
AcDbEntity
   8
MAIN
   6
CONTINUOUS
  62
      5
100
AcDbLine
  10
-11.34337
  20
-12.6786
  30
0.0
  11
-10.84337
  21
-12.6786
  31
0.0
   0
LINE
   5
D6
100
AcDbEntity
   8
MAIN
   6
CONTINUOUS
  62
      5
100
AcDbLine
  10
-11.09337
  20
-12.9286
  30
0.0
  11
-11.09337
  21
-12.4286
  31
0.0
   0
ENDBLK
   5
D7
100
AcDbEntity
   8
MAIN
100
AcDbBlockEnd
   0
BLOCK
   5
D8
100
AcDbEntity
   8
MAIN
100
AcDbBlockBegin
   2
*G33
  70
      1
  10
0.0
  20
0.0
  30
0.0
   3

   1

   0
LINE
   5
D9
100
AcDbEntity
   8
MAIN
   6
CONTINUOUS
  62
      5
100
AcDbLine
  10
-12.78087
  20
-12.6786
  30
0.0
  11
-12.28087
  21
-12.6786
  31
0.0
   0
LINE
   5
DA
100
AcDbEntity
   8
MAIN
   6
CONTINUOUS
  62
      5
100
AcDbLine
  10
-12.53087
  20
-12.9286
  30
0.0
  11
-12.53087
  21
-12.4286
  31
0.0
   0
LINE
   5
DB
100
AcDbEntity
   8
MAIN
   6
CONTINUOUS
  62
      5
100
AcDbLine
  10
-14.21837
  20
-12.6786
  30
0.0
  11
-12.90587
  21
-12.6786
  31
0.0
   0
LINE
   5
DC
100
AcDbEntity
   8
MAIN
   6
CONTINUOUS
  62
      5
100
AcDbLine
  10
-12.15587
  20
-12.6786
  30
0.0
  11
-10.84337
  21
-12.6786
  31
0.0
   0
LINE
   5
DD
100
AcDbEntity
   8
MAIN
   6
CONTINUOUS
  62
      5
100
AcDbLine
  10
-12.53087
  20
-10.9911
  30
0.0
  11
-12.53087
  21
-12.3036
  31
0.0
   0
LINE
   5
DE
100
AcDbEntity
   8
MAIN
   6
CONTINUOUS
  62
      5
100
AcDbLine
  10
-12.53087
  20
-13.0536
  30
0.0
  11
-12.53087
  21
-14.3661
  31
0.0
   0
ENDBLK
   5
DF
100
AcDbEntity
   8
MAIN
100
AcDbBlockEnd
   0
BLOCK
   5
E0
100
AcDbEntity
   8
MAIN
100
AcDbBlockBegin
   2
*G34
  70
      1
  10
0.0
  20
0.0
  30
0.0
   3

   1

   0
TEXT
   5
E1
100
AcDbEntity
   8
MAIN
  62
      5
100
AcDbText
  10
-16.70254
  20
-17.9536
  30
0.0
  40
0.53334
   1
0.250"
  50
90.0
  41
0.6
  11
-16.70254
  21
-17.9536
  31
0.0
100
AcDbText
  73
      3
   0
ENDBLK
   5
E2
100
AcDbEntity
   8
MAIN
100
AcDbBlockEnd
   0
BLOCK
   5
E3
100
AcDbEntity
   8
MAIN
100
AcDbBlockBegin
   2
*G35
  70
      1
  10
0.0
  20
0.0
  30
0.0
   3

   1

   0
TEXT
   5
E4
100
AcDbEntity
   8
MAIN
  62
      5
100
AcDbText
  10
-9.14193
  20
-13.67526
  30
0.0
  40
0.53334
   1
ÿ 2.125"
  41
0.6
  11
-9.14193
  21
-13.67526
  31
0.0
100
AcDbText
  73
      3
   0
ENDBLK
   5
E5
100
AcDbEntity
   8
MAIN
100
AcDbBlockEnd
   0
BLOCK
   5
E6
100
AcDbEntity
   8
MAIN
100
AcDbBlockBegin
   2
*G36
  70
      1
  10
0.0
  20
0.0
  30
0.0
   3

   1

   0
TEXT
   5
E7
100
AcDbEntity
   8
MAIN
  62
      5
100
AcDbText
  10
-9.14193
  20
-14.89526
  30
0.0
  40
0.53334
   1
ÿ 2.875"
  41
0.6
  11
-9.14193
  21
-14.89526
  31
0.0
100
AcDbText
  73
      3
   0
ENDBLK
   5
E8
100
AcDbEntity
   8
MAIN
100
AcDbBlockEnd
   0
BLOCK
   5
E9
100
AcDbEntity
   8
MAIN
100
AcDbBlockBegin
   2
*G37
  70
      1
  10
0.0
  20
0.0
  30
0.0
   3

   1

   0
TEXT
   5
EA
100
AcDbEntity
   8
MAIN
  62
      5
100
AcDbText
  10
-9.01087
  20
-16.01526
  30
0.0
  40
0.53334
   1
ÿ 4.500"
  41
0.6
  11
-9.01087
  21
-16.01526
  31
0.0
100
AcDbText
  73
      3
   0
ENDBLK
   5
EB
100
AcDbEntity
   8
MAIN
100
AcDbBlockEnd
   0
BLOCK
   5
EC
100
AcDbEntity
   8
MAIN
100
AcDbBlockBegin
   2
*G38
  70
      1
  10
0.0
  20
0.0
  30
0.0
   3

   1

   0
TEXT
   5
ED
100
AcDbEntity
   8
MAIN
  62
      5
100
AcDbText
  10
-8.81087
  20
-10.37527
  30
0.0
  40
0.53334
   1
ÿ 0.438"
  41
0.6
  11
-8.81087
  21
-10.37527
  31
0.0
100
AcDbText
  73
      3
   0
ENDBLK
   5
EE
100
AcDbEntity
   8
MAIN
100
AcDbBlockEnd
   0
BLOCK
   5
EF
100
AcDbEntity
   8
MAIN
100
AcDbBlockBegin
   2
*G39
  70
      1
  10
0.0
  20
0.0
  30
0.0
   3

   1

   0
LINE
   5
F0
100
AcDbEntity
   8
MAIN
   6
CONTINUOUS
  62
      5
100
AcDbLine
  10
6.13323
  20
-6.40516
  30
0.0
  11
6.63323
  21
-6.40516
  31
0.0
   0
LINE
   5
F1
100
AcDbEntity
   8
MAIN
   6
CONTINUOUS
  62
      5
100
AcDbLine
  10
6.38323
  20
-6.65516
  30
0.0
  11
6.38323
  21
-6.15516
  31
0.0
   0
ENDBLK
   5
F2
100
AcDbEntity
   8
MAIN
100
AcDbBlockEnd
   0
BLOCK
   5
F3
100
AcDbEntity
   8
MAIN
100
AcDbBlockBegin
   2
*G40
  70
      1
  10
0.0
  20
0.0
  30
0.0
   3

   1

   0
LINE
   5
F4
100
AcDbEntity
   8
MAIN
   6
CONTINUOUS
  62
      5
100
AcDbLine
  10
7.57073
  20
-7.84266
  30
0.0
  11
8.07073
  21
-7.84266
  31
0.0
   0
LINE
   5
F5
100
AcDbEntity
   8
MAIN
   6
CONTINUOUS
  62
      5
100
AcDbLine
  10
7.82073
  20
-8.09266
  30
0.0
  11
7.82073
  21
-7.59266
  31
0.0
   0
ENDBLK
   5
F6
100
AcDbEntity
   8
MAIN
100
AcDbBlockEnd
   0
BLOCK
   5
F7
100
AcDbEntity
   8
MAIN
100
AcDbBlockBegin
   2
*G41
  70
      1
  10
0.0
  20
0.0
  30
0.0
   3

   1

   0
LINE
   5
F8
100
AcDbEntity
   8
MAIN
   6
CONTINUOUS
  62
      5
100
AcDbLine
  10
6.13323
  20
-9.28016
  30
0.0
  11
6.63323
  21
-9.28016
  31
0.0
   0
LINE
   5
F9
100
AcDbEntity
   8
MAIN
   6
CONTINUOUS
  62
      5
100
AcDbLine
  10
6.38323
  20
-9.53016
  30
0.0
  11
6.38323
  21
-9.03016
  31
0.0
   0
ENDBLK
   5
FA
100
AcDbEntity
   8
MAIN
100
AcDbBlockEnd
   0
BLOCK
   5
FB
100
AcDbEntity
   8
MAIN
100
AcDbBlockBegin
   2
*G42
  70
      1
  10
0.0
  20
0.0
  30
0.0
   3

   1

   0
LINE
   5
FC
100
AcDbEntity
   8
MAIN
   6
CONTINUOUS
  62
      5
100
AcDbLine
  10
4.69573
  20
-7.84266
  30
0.0
  11
5.19573
  21
-7.84266
  31
0.0
   0
LINE
   5
FD
100
AcDbEntity
   8
MAIN
   6
CONTINUOUS
  62
      5
100
AcDbLine
  10
4.94573
  20
-8.09266
  30
0.0
  11
4.94573
  21
-7.59266
  31
0.0
   0
ENDBLK
   5
FE
100
AcDbEntity
   8
MAIN
100
AcDbBlockEnd
   0
BLOCK
   5
FF
100
AcDbEntity
   8
MAIN
100
AcDbBlockBegin
   2
*G43
  70
      1
  10
0.0
  20
0.0
  30
0.0
   3

   1

   0
LINE
   5
100
100
AcDbEntity
   8
MAIN
   6
CONTINUOUS
  62
      5
100
AcDbLine
  10
7.57073
  20
-7.84266
  30
0.0
  11
8.07073
  21
-7.84266
  31
0.0
   0
LINE
   5
101
100
AcDbEntity
   8
MAIN
   6
CONTINUOUS
  62
      5
100
AcDbLine
  10
7.82073
  20
-8.09266
  30
0.0
  11
7.82073
  21
-7.59266
  31
0.0
   0
ENDBLK
   5
102
100
AcDbEntity
   8
MAIN
100
AcDbBlockEnd
   0
BLOCK
   5
103
100
AcDbEntity
   8
MAIN
100
AcDbBlockBegin
   2
*G44
  70
      1
  10
0.0
  20
0.0
  30
0.0
   3

   1

   0
LINE
   5
104
100
AcDbEntity
   8
MAIN
   6
CONTINUOUS
  62
      5
100
AcDbLine
  10
6.13323
  20
-7.84266
  30
0.0
  11
6.63323
  21
-7.84266
  31
0.0
   0
LINE
   5
105
100
AcDbEntity
   8
MAIN
   6
CONTINUOUS
  62
      5
100
AcDbLine
  10
6.38323
  20
-8.09266
  30
0.0
  11
6.38323
  21
-7.59266
  31
0.0
   0
LINE
   5
106
100
AcDbEntity
   8
MAIN
   6
CONTINUOUS
  62
      5
100
AcDbLine
  10
4.69573
  20
-7.84266
  30
0.0
  11
6.00823
  21
-7.84266
  31
0.0
   0
LINE
   5
107
100
AcDbEntity
   8
MAIN
   6
CONTINUOUS
  62
      5
100
AcDbLine
  10
6.75823
  20
-7.84266
  30
0.0
  11
8.07073
  21
-7.84266
  31
0.0
   0
LINE
   5
108
100
AcDbEntity
   8
MAIN
   6
CONTINUOUS
  62
      5
100
AcDbLine
  10
6.38323
  20
-6.15516
  30
0.0
  11
6.38323
  21
-7.46766
  31
0.0
   0
LINE
   5
109
100
AcDbEntity
   8
MAIN
   6
CONTINUOUS
  62
      5
100
AcDbLine
  10
6.38323
  20
-8.21766
  30
0.0
  11
6.38323
  21
-9.53016
  31
0.0
   0
ENDBLK
   5
10A
100
AcDbEntity
   8
MAIN
100
AcDbBlockEnd
   0
BLOCK
   5
10B
100
AcDbEntity
   8
MAIN
100
AcDbBlockBegin
   2
*G45
  70
      1
  10
0.0
  20
0.0
  30
0.0
   3

   1

   0
LINE
   5
10C
100
AcDbEntity
   8
MAIN
   6
CONTINUOUS
  62
      5
100
AcDbLine
  10
22.00823
  20
-7.84266
  30
0.0
  11
22.50823
  21
-7.84266
  31
0.0
   0
LINE
   5
10D
100
AcDbEntity
   8
MAIN
   6
CONTINUOUS
  62
      5
100
AcDbLine
  10
22.25823
  20
-8.09266
  30
0.0
  11
22.25823
  21
-7.59266
  31
0.0
   0
LINE
   5
10E
100
AcDbEntity
   8
MAIN
   6
CONTINUOUS
  62
      5
100
AcDbLine
  10
21.50823
  20
-7.84266
  30
0.0
  11
21.88323
  21
-7.84266
  31
0.0
   0
LINE
   5
10F
100
AcDbEntity
   8
MAIN
   6
CONTINUOUS
  62
      5
100
AcDbLine
  10
22.63323
  20
-7.84266
  30
0.0
  11
23.00823
  21
-7.84266
  31
0.0
   0
LINE
   5
110
100
AcDbEntity
   8
MAIN
   6
CONTINUOUS
  62
      5
100
AcDbLine
  10
22.25823
  20
-7.09266
  30
0.0
  11
22.25823
  21
-7.46766
  31
0.0
   0
LINE
   5
111
100
AcDbEntity
   8
MAIN
   6
CONTINUOUS
  62
      5
100
AcDbLine
  10
22.25823
  20
-8.21766
  30
0.0
  11
22.25823
  21
-8.59266
  31
0.0
   0
ENDBLK
   5
112
100
AcDbEntity
   8
MAIN
100
AcDbBlockEnd
   0
BLOCK
   5
113
100
AcDbEntity
   8
MAIN
100
AcDbBlockBegin
   2
*G46
  70
      1
  10
0.0
  20
0.0
  30
0.0
   3

   1

   0
TEXT
   5
114
100
AcDbEntity
   8
MAIN
  62
      5
100
AcDbText
  10
29.96571
  20
5.27183
  30
0.0
  40
0.53334
   1
ÿ 1.000"
  41
0.6
  11
29.96571
  21
5.27183
  31
0.0
100
AcDbText
  73
      3
   0
ENDBLK
   5
115
100
AcDbEntity
   8
MAIN
100
AcDbBlockEnd
   0
BLOCK
   5
116
100
AcDbEntity
   8
MAIN
100
AcDbBlockBegin
   2
*G47
  70
      1
  10
0.0
  20
0.0
  30
0.0
   3

   1

   0
TEXT
   5
117
100
AcDbEntity
   8
MAIN
  62
      5
100
AcDbText
  10
30.06571
  20
6.83183
  30
0.0
  40
0.53334
   1
ÿ 0.875"
  41
0.6
  11
30.06571
  21
6.83183
  31
0.0
100
AcDbText
  73
      3
   0
ENDBLK
   5
118
100
AcDbEntity
   8
MAIN
100
AcDbBlockEnd
   0
BLOCK
   5
119
100
AcDbEntity
   8
MAIN
100
AcDbBlockBegin
   2
*G48
  70
      1
  10
0.0
  20
0.0
  30
0.0
   3

   1

   0
TEXT
   5
11A
100
AcDbEntity
   8
MAIN
  62
      5
100
AcDbText
  10
29.25379
  20
10.82067
  30
0.0
  40
0.53334
   1
10.000"
  50
90.0
  41
0.6
  11
29.25379
  21
10.82067
  31
0.0
100
AcDbText
  73
      3
   0
ENDBLK
   5
11B
100
AcDbEntity
   8
MAIN
100
AcDbBlockEnd
   0
BLOCK
   5
11C
100
AcDbEntity
   8
MAIN
100
AcDbBlockBegin
   2
*G49
  70
      1
  10
0.0
  20
0.0
  30
0.0
   3

   1

   0
TEXT
   5
11D
100
AcDbEntity
   8
MAIN
  62
      5
100
AcDbText
  10
12.97156
  20
-3.90984
  30
0.0
  40
0.53334
   1
18.000"
  41
0.6
  11
12.97156
  21
-3.90984
  31
0.0
100
AcDbText
  73
      3
   0
ENDBLK
   5
11E
100
AcDbEntity
   8
MAIN
100
AcDbBlockEnd
   0
BLOCK
   5
11F
100
AcDbEntity
   8
MAIN
100
AcDbBlockBegin
   2
*G50
  70
      1
  10
0.0
  20
0.0
  30
0.0
   3

   1

   0
TEXT
   5
120
100
AcDbEntity
   8
MAIN
  62
      5
100
AcDbText
  10
13.18406
  20
-10.65984
  30
0.0
  40
0.53334
   1
15.875"
  41
0.6
  11
13.18406
  21
-10.65984
  31
0.0
100
AcDbText
  73
      3
   0
ENDBLK
   5
121
100
AcDbEntity
   8
MAIN
100
AcDbBlockEnd
   0
BLOCK
   5
122
100
AcDbEntity
   8
MAIN
100
AcDbBlockBegin
   2
*G51
  70
      1
  10
0.0
  20
0.0
  30
0.0
   3

   1

   0
TEXT
   5
123
100
AcDbEntity
   8
MAIN
  62
      5
100
AcDbText
  10
23.93192
  20
-9.22213
  30
0.0
  40
0.53334
   1
0.850"
  41
0.6
  11
23.93192
  21
-9.22213
  31
0.0
100
AcDbText
  73
      3
   0
ENDBLK
   5
124
100
AcDbEntity
   8
MAIN
100
AcDbBlockEnd
   0
BLOCK
   5
125
100
AcDbEntity
   8
MAIN
100
AcDbBlockBegin
   2
*G52
  70
      1
  10
0.0
  20
0.0
  30
0.0
   3

   1

   0
TEXT
   5
126
100
AcDbEntity
   8
MAIN
  62
      5
100
AcDbText
  10
23.62429
  20
-5.75151
  30
0.0
  40
0.53334
   1
2.000"
  50
90.0
  41
0.6
  11
23.62429
  21
-5.75151
  31
0.0
100
AcDbText
  73
      3
   0
ENDBLK
   5
127
100
AcDbEntity
   8
MAIN
100
AcDbBlockEnd
   0
BLOCK
   5
128
100
AcDbEntity
   8
MAIN
100
AcDbBlockBegin
   2
*G53
  70
      1
  10
0.0
  20
0.0
  30
0.0
   3

   1

   0
TEXT
   5
129
100
AcDbEntity
   8
MAIN
  62
      5
100
AcDbText
  10
9.37429
  20
2.21984
  30
0.0
  40
0.53334
   1
6.375"
  50
90.0
  41
0.6
  11
9.37429
  21
2.21984
  31
0.0
100
AcDbText
  73
      3
   0
ENDBLK
   5
12A
100
AcDbEntity
   8
MAIN
100
AcDbBlockEnd
   0
BLOCK
   5
12B
100
AcDbEntity
   8
MAIN
100
AcDbBlockBegin
   2
*G54
  70
      1
  10
0.0
  20
0.0
  30
0.0
   3

   1

   0
TEXT
   5
12C
100
AcDbEntity
   8
MAIN
  62
      5
100
AcDbText
  10
18.57429
  20
10.78791
  30
0.0
  40
0.53334
   1
9.761"
  50
90.0
  41
0.6
  11
18.57429
  21
10.78791
  31
0.0
100
AcDbText
  73
      3
   0
ENDBLK
   5
12D
100
AcDbEntity
   8
MAIN
100
AcDbBlockEnd
   0
BLOCK
   5
12E
100
AcDbEntity
   8
MAIN
100
AcDbBlockBegin
   2
*G55
  70
      1
  10
0.0
  20
0.0
  30
0.0
   3

   1

   0
TEXT
   5
12F
100
AcDbEntity
   8
MAIN
  62
      5
100
AcDbText
  10
19.1518
  20
18.57807
  30
0.0
  40
0.53334
   1
2.000"
  50
90.0
  41
0.6
  11
19.1518
  21
18.57807
  31
0.0
100
AcDbText
  73
      3
   0
ENDBLK
   5
130
100
AcDbEntity
   8
MAIN
100
AcDbBlockEnd
   0
BLOCK
   5
131
100
AcDbEntity
   8
MAIN
100
AcDbBlockBegin
   2
*G56
  70
      1
  10
0.0
  20
0.0
  30
0.0
   3

   1

   0
TEXT
   5
132
100
AcDbEntity
   8
MAIN
  62
      5
100
AcDbText
  10
23.24929
  20
17.26586
  30
0.0
  40
0.53334
   1
1.000"
  50
90.0
  41
0.6
  11
23.24929
  21
17.26586
  31
0.0
100
AcDbText
  73
      3
   0
ENDBLK
   5
133
100
AcDbEntity
   8
MAIN
100
AcDbBlockEnd
   0
BLOCK
   5
134
100
AcDbEntity
   8
MAIN
100
AcDbBlockBegin
   2
*G57
  70
      1
  10
0.0
  20
0.0
  30
0.0
   3

   1

   0
TEXT
   5
135
100
AcDbEntity
   8
MAIN
  62
      5
100
AcDbText
  10
23.53844
  20
11.51016
  30
0.0
  40
0.53334
   1
0.121"
  41
0.6
  11
23.53844
  21
11.51016
  31
0.0
100
AcDbText
  73
      3
   0
ENDBLK
   5
136
100
AcDbEntity
   8
MAIN
100
AcDbBlockEnd
   0
BLOCK
   5
137
100
AcDbEntity
   8
MAIN
100
AcDbBlockBegin
   2
*G58
  70
      1
  10
0.0
  20
0.0
  30
0.0
   3

   1

   0
TEXT
   5
138
100
AcDbEntity
   8
MAIN
  62
      5
100
AcDbText
  10
23.41867
  20
3.75734
  30
0.0
  40
0.53334
   1
0.500"
  50
90.0
  41
0.6
  11
23.41867
  21
3.75734
  31
0.0
100
AcDbText
  73
      3
   0
ENDBLK
   5
139
100
AcDbEntity
   8
MAIN
100
AcDbBlockEnd
   0
ENDSEC
   0
SECTION
   2
ENTITIES
   0
SPLINE
   5
13A
100
AcDbEntity
   8
MAIN
   6
CONTINUOUS
  62
      1
100
AcDbSpline
210
0.0
220
0.0
230
1.0
  70
      9
  71
      3
  72
     47
  73
     43
  74
      0
  42
0.000001
  43
0.000001
  40
0.0
  40
0.0
  40
0.0
  40
0.0
  40
1.0
  40
1.0
  40
1.0
  40
2.0
  40
2.0
  40
2.0
  40
3.0
  40
3.0
  40
3.0
  40
4.0
  40
4.0
  40
4.0
  40
5.0
  40
5.0
  40
5.0
  40
6.0
  40
6.0
  40
6.0
  40
7.0
  40
7.0
  40
7.0
  40
8.0
  40
8.0
  40
8.0
  40
9.0
  40
9.0
  40
9.0
  40
10.0
  40
10.0
  40
10.0
  40
11.0
  40
11.0
  40
11.0
  40
12.0
  40
12.0
  40
12.0
  40
13.0
  40
13.0
  40
13.0
  40
14.0
  40
14.0
  40
14.0
  40
14.0
  10
34.9002899999999983
  20
33.4699999999999989
  30
0.0
  10
34.9551700000000025
  20
33.4699999999999989
  30
0.0
  10
35.0063699999999969
  20
33.4655300000000011
  30
0.0
  10
35.0538900000000027
  20
33.4565999999999946
  30
0.0
  10
35.1014199999999974
  20
33.4476700000000022
  30
0.0
  10
35.1388999999999996
  20
33.4354699999999951
  30
0.0
  10
35.1663399999999982
  20
33.4200000000000017
  30
0.0
  10
35.1937799999999967
  20
33.4045300000000012
  30
0.0
  10
35.207499999999996
  20
33.3878600000000034
  30
0.0
  10
35.207499999999996
  20
33.3700000000000045
  30
0.0
  10
35.207499999999996
  20
33.361069999999998
  30
0.0
  10
35.207499999999996
  20
33.3521399999999986
  30
0.0
  10
35.207499999999996
  20
33.3432099999999991
  30
0.0
  10
35.1526199999999989
  20
33.3122599999999949
  30
0.0
  10
35.1014199999999974
  20
33.2923200000000037
  30
0.0
  10
35.0538900000000027
  20
33.2833899999999971
  30
0.0
  10
35.0063699999999969
  20
33.2744600000000048
  30
0.0
  10
34.9688900000000018
  20
33.269999999999996
  30
0.0
  10
34.9414499999999961
  20
33.269999999999996
  30
0.0
  10
34.9140099999999975
  20
33.269999999999996
  30
0.0
  10
34.8684299999999965
  20
33.269999999999996
  30
0.0
  10
34.80471
  20
33.269999999999996
  30
0.0
  10
34.7772700000000015
  20
33.269999999999996
  30
0.0
  10
34.7498299999999958
  20
33.269999999999996
  30
0.0
  10
34.7223899999999972
  20
33.269999999999996
  30
0.0
  10
34.6273399999999967
  20
33.2878599999999949
  30
0.0
  10
34.5660999999999987
  20
33.3045299999999997
  30
0.0
  10
34.5386600000000001
  20
33.3200000000000003
  30
0.0
  10
34.5112200000000016
  20
33.3354700000000008
  30
0.0
  10
34.4975000000000023
  20
33.3476700000000008
  30
0.0
  10
34.4975000000000023
  20
33.3566000000000003
  30
0.0
  10
34.4975000000000023
  20
33.3655299999999997
  30
0.0
  10
34.4975000000000023
  20
33.3789299999999969
  30
0.0
  10
34.4975000000000023
  20
33.3967899999999958
  30
0.0
  10
34.5249400000000009
  20
33.4122600000000034
  30
0.0
  10
34.5523799999999994
  20
33.42774
  30
0.0
  10
34.579819999999998
  20
33.4432100000000005
  30
0.0
  10
34.6748699999999985
  20
33.4610699999999994
  30
0.0
  10
34.7361099999999965
  20
33.4699999999999989
  30
0.0
  10
34.7635500000000022
  20
33.4699999999999989
  30
0.0
  10
34.7909900000000007
  20
33.4699999999999989
  30
0.0
  10
34.8365700000000018
  20
33.4699999999999989
  30
0.0
  10
34.9002899999999983
  20
33.4699999999999989
  30
0.0
   0
SPLINE
   5
13B
100
AcDbEntity
   8
MAIN
   6
CONTINUOUS
  62
      1
100
AcDbSpline
210
0.0
220
0.0
230
1.0
  70
      9
  71
      3
  72
     47
  73
     43
  74
      0
  42
0.000001
  43
0.000001
  40
0.0
  40
0.0
  40
0.0
  40
0.0
  40
1.0
  40
1.0
  40
1.0
  40
2.0
  40
2.0
  40
2.0
  40
3.0
  40
3.0
  40
3.0
  40
4.0
  40
4.0
  40
4.0
  40
5.0
  40
5.0
  40
5.0
  40
6.0
  40
6.0
  40
6.0
  40
7.0
  40
7.0
  40
7.0
  40
8.0
  40
8.0
  40
8.0
  40
9.0
  40
9.0
  40
9.0
  40
10.0
  40
10.0
  40
10.0
  40
11.0
  40
11.0
  40
11.0
  40
12.0
  40
12.0
  40
12.0
  40
13.0
  40
13.0
  40
13.0
  40
14.0
  40
14.0
  40
14.0
  40
14.0
  10
19.8312499999999972
  20
16.8999999999999986
  30
0.0
  10
19.8814899999999994
  20
16.8999999999999986
  30
0.0
  10
19.9283599999999979
  20
16.8944200000000002
  30
0.0
  10
19.9718699999999991
  20
16.8832500000000003
  30
0.0
  10
20.0153800000000004
  20
16.87209
  30
0.0
  10
20.0496999999999979
  20
16.8568399999999983
  30
0.0
  10
20.074819999999999
  20
16.8374999999999986
  30
0.0
  10
20.0999400000000001
  20
16.8181599999999989
  30
0.0
  10
20.1124999999999972
  20
16.7973299999999988
  30
0.0
  10
20.1124999999999972
  20
16.7749999999999986
  30
0.0
  10
20.1124999999999972
  20
16.7638399999999983
  30
0.0
  10
20.1124999999999972
  20
16.752679999999998
  30
0.0
  10
20.1124999999999972
  20
16.7415099999999981
  30
0.0
  10
20.0622599999999984
  20
16.7028299999999987
  30
0.0
  10
20.0153800000000004
  20
16.6779100000000007
  30
0.0
  10
19.9718699999999991
  20
16.6667400000000008
  30
0.0
  10
19.9283599999999979
  20
16.6555800000000005
  30
0.0
  10
19.89405
  20
16.6499999999999986
  30
0.0
  10
19.8689299999999989
  20
16.6499999999999986
  30
0.0
  10
19.8438099999999977
  20
16.6499999999999986
  30
0.0
  10
19.2520799999999994
  20
16.6499999999999986
  30
0.0
  10
18.09375
  20
16.6499999999999986
  30
0.0
  10
18.0686299999999989
  20
16.6499999999999986
  30
0.0
  10
18.0435099999999977
  20
16.6499999999999986
  30
0.0
  10
18.0183900000000001
  20
16.6499999999999986
  30
0.0
  10
17.9313700000000011
  20
16.6723299999999988
  30
0.0
  10
17.8752999999999993
  20
16.6931599999999989
  30
0.0
  10
17.8501799999999982
  20
16.7124999999999986
  30
0.0
  10
17.8250600000000006
  20
16.7318399999999983
  30
0.0
  10
17.8125
  20
16.74709
  30
0.0
  10
17.8125
  20
16.7582500000000003
  30
0.0
  10
17.8125
  20
16.7694200000000002
  30
0.0
  10
17.8125
  20
16.7861599999999989
  30
0.0
  10
17.8125
  20
16.808489999999999
  30
0.0
  10
17.8376200000000011
  20
16.8278299999999987
  30
0.0
  10
17.8627399999999987
  20
16.8471699999999984
  30
0.0
  10
17.8878599999999999
  20
16.8665099999999981
  30
0.0
  10
17.9748799999999989
  20
16.8888399999999983
  30
0.0
  10
18.0309499999999971
  20
16.8999999999999986
  30
0.0
  10
18.0560699999999983
  20
16.8999999999999986
  30
0.0
  10
18.0811899999999994
  20
16.8999999999999986
  30
0.0
  10
18.6729199999999977
  20
16.8999999999999986
  30
0.0
  10
19.8312499999999972
  20
16.8999999999999986
  30
0.0
   0
SPLINE
   5
13C
100
AcDbEntity
   8
MAIN
   6
CONTINUOUS
  62
      1
100
AcDbSpline
210
0.0
220
0.0
230
1.0
  70
      9
  71
      3
  72
     47
  73
     43
  74
      0
  42
0.000001
  43
0.000001
  40
0.0
  40
0.0
  40
0.0
  40
0.0
  40
1.0
  40
1.0
  40
1.0
  40
2.0
  40
2.0
  40
2.0
  40
3.0
  40
3.0
  40
3.0
  40
4.0
  40
4.0
  40
4.0
  40
5.0
  40
5.0
  40
5.0
  40
6.0
  40
6.0
  40
6.0
  40
7.0
  40
7.0
  40
7.0
  40
8.0
  40
8.0
  40
8.0
  40
9.0
  40
9.0
  40
9.0
  40
10.0
  40
10.0
  40
10.0
  40
11.0
  40
11.0
  40
11.0
  40
12.0
  40
12.0
  40
12.0
  40
13.0
  40
13.0
  40
13.0
  40
14.0
  40
14.0
  40
14.0
  40
14.0
  10
19.8562699999999985
  20
23.1700000000000017
  30
0.0
  10
19.9073999999999991
  20
23.1700000000000017
  30
0.0
  10
19.9551099999999977
  20
23.1641899999999978
  30
0.0
  10
19.9993799999999986
  20
23.1525800000000004
  30
0.0
  10
20.0436599999999991
  20
23.1409699999999994
  30
0.0
  10
20.0785799999999988
  20
23.1251099999999994
  30
0.0
  10
20.1041499999999971
  20
23.1050000000000004
  30
0.0
  10
20.1297199999999989
  20
23.0848900000000015
  30
0.0
  10
20.1424999999999983
  20
23.0632200000000012
  30
0.0
  10
20.1424999999999983
  20
23.0399999999999991
  30
0.0
  10
20.1424999999999983
  20
23.0283900000000017
  30
0.0
  10
20.1424999999999983
  20
23.0167800000000007
  30
0.0
  10
20.1424999999999983
  20
23.0051699999999997
  30
0.0
  10
20.0913699999999977
  20
22.9649399999999986
  30
0.0
  10
20.0436599999999991
  20
22.9390199999999993
  30
0.0
  10
19.9993799999999986
  20
22.9274100000000018
  30
0.0
  10
19.9551099999999977
  20
22.9158000000000008
  30
0.0
  10
19.9201899999999981
  20
22.9100000000000001
  30
0.0
  10
19.8946199999999997
  20
22.9100000000000001
  30
0.0
  10
19.8690499999999979
  20
22.9100000000000001
  30
0.0
  10
19.2804199999999994
  20
22.9100000000000001
  30
0.0
  10
18.1287299999999973
  20
22.9100000000000001
  30
0.0
  10
18.103159999999999
  20
22.9100000000000001
  30
0.0
  10
18.0776000000000003
  20
22.9100000000000001
  30
0.0
  10
18.0520299999999985
  20
22.9100000000000001
  30
0.0
  10
17.963479999999997
  20
22.9332199999999986
  30
0.0
  10
17.9064199999999971
  20
22.9548899999999989
  30
0.0
  10
17.8808499999999988
  20
22.9750000000000014
  30
0.0
  10
17.8552800000000005
  20
22.9951100000000004
  30
0.0
  10
17.8425000000000011
  20
23.0109700000000004
  30
0.0
  10
17.8425000000000011
  20
23.0225799999999978
  30
0.0
  10
17.8425000000000011
  20
23.0341899999999988
  30
0.0
  10
17.8425000000000011
  20
23.0516100000000002
  30
0.0
  10
17.8425000000000011
  20
23.0748299999999986
  30
0.0
  10
17.8680699999999995
  20
23.0949400000000011
  30
0.0
  10
17.8936299999999981
  20
23.1150599999999997
  30
0.0
  10
17.9192
  20
23.1351699999999987
  30
0.0
  10
18.0077499999999979
  20
23.1583900000000007
  30
0.0
  10
18.0648100000000014
  20
23.1700000000000017
  30
0.0
  10
18.0903799999999997
  20
23.1700000000000017
  30
0.0
  10
18.115949999999998
  20
23.1700000000000017
  30
0.0
  10
18.70458
  20
23.1700000000000017
  30
0.0
  10
19.8562699999999985
  20
23.1700000000000017
  30
0.0
   0
SPLINE
   5
13D
100
AcDbEntity
   8
MAIN
   6
CONTINUOUS
  62
      1
100
AcDbSpline
210
0.0
220
0.0
230
1.0
  70
      9
  71
      3
  72
     47
  73
     43
  74
      0
  42
0.000001
  43
0.000001
  40
0.0
  40
0.0
  40
0.0
  40
0.0
  40
1.0
  40
1.0
  40
1.0
  40
2.0
  40
2.0
  40
2.0
  40
3.0
  40
3.0
  40
3.0
  40
4.0
  40
4.0
  40
4.0
  40
5.0
  40
5.0
  40
5.0
  40
6.0
  40
6.0
  40
6.0
  40
7.0
  40
7.0
  40
7.0
  40
8.0
  40
8.0
  40
8.0
  40
9.0
  40
9.0
  40
9.0
  40
10.0
  40
10.0
  40
10.0
  40
11.0
  40
11.0
  40
11.0
  40
12.0
  40
12.0
  40
12.0
  40
13.0
  40
13.0
  40
13.0
  40
14.0
  40
14.0
  40
14.0
  40
14.0
  10
35.041249999999998
  20
23.7300000000000004
  30
0.0
  10
35.0914900000000003
  20
23.7300000000000004
  30
0.0
  10
35.1383599999999987
  20
23.7259799999999998
  30
0.0
  10
35.1818699999999964
  20
23.7179399999999987
  30
0.0
  10
35.2253800000000012
  20
23.7098999999999975
  30
0.0
  10
35.2597000000000023
  20
23.6989200000000011
  30
0.0
  10
35.2848199999999963
  20
23.6849999999999987
  30
0.0
  10
35.3099399999999974
  20
23.6710799999999999
  30
0.0
  10
35.322499999999998
  20
23.6560799999999993
  30
0.0
  10
35.322499999999998
  20
23.6400000000000006
  30
0.0
  10
35.322499999999998
  20
23.6319599999999994
  30
0.0
  10
35.322499999999998
  20
23.6239199999999983
  30
0.0
  10
35.322499999999998
  20
23.6158800000000006
  30
0.0
  10
35.2722599999999957
  20
23.5880399999999995
  30
0.0
  10
35.2253800000000012
  20
23.5701000000000001
  30
0.0
  10
35.1818699999999964
  20
23.5620599999999989
  30
0.0
  10
35.1383599999999987
  20
23.5540200000000013
  30
0.0
  10
35.1040500000000009
  20
23.5500000000000007
  30
0.0
  10
35.0789299999999997
  20
23.5500000000000007
  30
0.0
  10
35.0538099999999986
  20
23.5500000000000007
  30
0.0
  10
34.9087499999999977
  20
23.5500000000000007
  30
0.0
  10
34.6437499999999972
  20
23.5500000000000007
  30
0.0
  10
34.618629999999996
  20
23.5500000000000007
  30
0.0
  10
34.593510000000002
  20
23.5500000000000007
  30
0.0
  10
34.5683900000000008
  20
23.5500000000000007
  30
0.0
  10
34.4813699999999983
  20
23.5660799999999995
  30
0.0
  10
34.4253
  20
23.58108
  30
0.0
  10
34.4001799999999989
  20
23.5949999999999989
  30
0.0
  10
34.3750599999999977
  20
23.6089199999999977
  30
0.0
  10
34.3624999999999972
  20
23.6199000000000012
  30
0.0
  10
34.3624999999999972
  20
23.6279399999999988
  30
0.0
  10
34.3624999999999972
  20
23.63598
  30
0.0
  10
34.3624999999999972
  20
23.6480400000000017
  30
0.0
  10
34.3624999999999972
  20
23.6641200000000005
  30
0.0
  10
34.3876199999999983
  20
23.6780399999999993
  30
0.0
  10
34.4127399999999994
  20
23.6919600000000017
  30
0.0
  10
34.4378600000000006
  20
23.7058800000000005
  30
0.0
  10
34.524879999999996
  20
23.7219599999999993
  30
0.0
  10
34.5809500000000014
  20
23.7300000000000004
  30
0.0
  10
34.6060700000000026
  20
23.7300000000000004
  30
0.0
  10
34.6311899999999966
  20
23.7300000000000004
  30
0.0
  10
34.7762499999999974
  20
23.7300000000000004
  30
0.0
  10
35.041249999999998
  20
23.7300000000000004
  30
0.0
   0
TEXT
   5
13E
100
AcDbEntity
   8
MAIN
  62
      5
100
AcDbText
  10
-17.9382
  20
37.05443
  30
0.0
  40
1.6
   1
Tubing/Bar Roller  - Parts C
  41
0.6
  11
-17.9382
  21
37.05443
  31
0.0
100
AcDbText
  73
      3
   0
TEXT
   5
13F
100
AcDbEntity
   8
MAIN
  62
      5
100
AcDbText
  10
-15.36993
  20
3.31666
  30
0.0
  40
1.06666
   1
Roller dies
  41
0.6
  11
-15.36993
  21
3.31666
  31
0.0
100
AcDbText
  73
      3
   0
LWPOLYLINE
   5
140
100
AcDbEntity
   8
MAIN
   6
CONTINUOUS
  62
      7
100
AcDbPolyline
  90
         5
  70
    129
  10
16.72977
  20
16.73385
  10
21.22977
  20
16.73385
  10
21.22977
  20
16.48385
  10
16.72977
  20
16.48385
  10
16.72977
  20
16.73385
   0
LWPOLYLINE
   5
141
100
AcDbEntity
   8
MAIN
   6
CONTINUOUS
  62
      7
100
AcDbPolyline
  90
         5
  70
    129
  10
17.97977
  20
23.10885
  10
19.97977
  20
23.10885
  10
19.97977
  20
16.73385
  10
17.97977
  20
16.73385
  10
17.97977
  20
23.10885
   0
LWPOLYLINE
   5
142
100
AcDbEntity
   8
MAIN
   6
CONTINUOUS
  62
      7
100
AcDbPolyline
  90
         5
  70
    129
  10
17.70477
  20
23.60885
  10
35.70477
  20
23.60885
  10
35.70477
  20
23.10885
  10
17.70477
  20
23.10885
  10
17.70477
  20
23.60885
   0
LWPOLYLINE
   5
143
100
AcDbEntity
   8
MAIN
   6
CONTINUOUS
  62
      7
100
AcDbPolyline
  90
         5
  70
    129
  10
40.40225
  20
33.70885
  10
41.40225
  20
33.70885
  10
41.40225
  20
23.70885
  10
40.40225
  20
23.70885
  10
40.40225
  20
33.70885
   0
LWPOLYLINE
   5
144
100
AcDbEntity
   8
MAIN
   6
CONTINUOUS
  62
      7
100
AcDbPolyline
  90
         5
  70
    129
  10
34.20477
  20
33.69366
  10
35.48977
  20
33.69366
  10
35.48977
  20
33.60885
  10
34.20477
  20
33.60885
  10
34.20477
  20
33.69366
   0
TEXT
   5
145
100
AcDbEntity
   8
MAIN
  62
      5
100
AcDbText
  10
23.33107
  20
2.28134
  30
0.0
  40
1.06666
   1
Hand Crank
  41
0.6
  11
23.33107
  21
2.28134
  31
0.0
100
AcDbText
  73
      3
   0
LWPOLYLINE
   5
146
100
AcDbEntity
   8
MAIN
   6
CONTINUOUS
  62
      7
100
AcDbPolyline
  90
         5
  70
    129
  10
-13.0875
  20
28.95
  10
-8.0875
  20
28.95
  10
-8.0875
  20
28.6375
  10
-13.0875
  20
28.6375
  10
-13.0875
  20
28.95
   0
LWPOLYLINE
   5
147
100
AcDbEntity
   8
MAIN
   6
CONTINUOUS
  62
      7
100
AcDbPolyline
  90
         5
  70
    129
  10
2.76812
  20
27.275
  10
7.76812
  20
27.275
  10
7.76812
  20
26.9625
  10
2.76812
  20
26.9625
  10
2.76812
  20
27.275
   0
LWPOLYLINE
   5
148
100
AcDbEntity
   8
MAIN
   6
CONTINUOUS
  62
      7
100
AcDbPolyline
  90
         5
  70
    129
  10
-13.0875
  20
27.2625
  10
-8.0875
  20
27.2625
  10
-8.0875
  20
26.95
  10
-13.0875
  20
26.95
  10
-13.0875
  20
27.2625
   0
ARC
   5
149
100
AcDbEntity
   8
MAIN
   6
CONTINUOUS
  62
      7
100
AcDbCircle
  10
-13.38724
  20
27.95
  30
0.0
  40
0.75
100
AcDbArc
  50
293.556501
  51
66.443499
   0
ARC
   5
14A
100
AcDbEntity
   8
MAIN
   6
CONTINUOUS
  62
      7
100
AcDbCircle
  10
-7.78776
  20
27.95
  30
0.0
  40
0.75
100
AcDbArc
  50
113.556501
  51
246.443499
   0
LWPOLYLINE
   5
14B
100
AcDbEntity
   8
MAIN
   6
CONTINUOUS
  62
      7
100
AcDbPolyline
  90
         5
  70
    129
  10
2.76812
  20
29.4625
  10
7.76812
  20
29.4625
  10
7.76812
  20
29.15
  10
2.76812
  20
29.15
  10
2.76812
  20
29.4625
   0
ARC
   5
14C
100
AcDbEntity
   8
MAIN
   6
CONTINUOUS
  62
      7
100
AcDbCircle
  10
2.42013
  20
28.2125
  30
0.0
  40
1.0
100
AcDbArc
  50
290.364389
  51
69.635611
   0
ARC
   5
14D
100
AcDbEntity
   8
MAIN
   6
CONTINUOUS
  62
      7
100
AcDbCircle
  10
8.11611
  20
28.2125
  30
0.0
  40
1.0
100
AcDbArc
  50
110.364389
  51
249.635611
   0
CIRCLE
   5
14E
100
AcDbEntity
   8
MAIN
   6
CONTINUOUS
  62
      7
100
AcDbCircle
  10
2.37234
  20
17.37737
  30
0.0
  40
2.5
   0
CIRCLE
   5
14F
100
AcDbEntity
   8
MAIN
   6
CONTINUOUS
  62
      7
100
AcDbCircle
  10
2.37234
  20
17.37737
  30
0.0
  40
0.875
   0
CIRCLE
   5
150
100
AcDbEntity
   8
MAIN
   6
VECTORWORKS_DASH_03
  62
      5
100
AcDbCircle
  10
2.37234
  20
17.37737
  30
0.0
  40
1.4375
   0
INSERT
   5
151
100
AcDbEntity
   8
MAIN
100
AcDbBlockReference
   2
*G0
  10
12.59654
  20
16.75151
  30
0.0
   0
CIRCLE
   5
152
100
AcDbEntity
   8
MAIN
   6
CONTINUOUS
  62
      7
100
AcDbCircle
  10
2.37234
  20
18.81487
  30
0.0
  40
0.21875
   0
INSERT
   5
153
100
AcDbEntity
   8
MAIN
100
AcDbBlockReference
   2
*G1
  10
12.59654
  20
16.75151
  30
0.0
   0
CIRCLE
   5
154
100
AcDbEntity
   8
MAIN
   6
CONTINUOUS
  62
      7
100
AcDbCircle
  10
3.80984
  20
17.37737
  30
0.0
  40
0.21875
   0
INSERT
   5
155
100
AcDbEntity
   8
MAIN
100
AcDbBlockReference
   2
*G2
  10
12.59654
  20
16.75151
  30
0.0
   0
CIRCLE
   5
156
100
AcDbEntity
   8
MAIN
   6
CONTINUOUS
  62
      7
100
AcDbCircle
  10
2.37234
  20
15.93987
  30
0.0
  40
0.21875
   0
INSERT
   5
157
100
AcDbEntity
   8
MAIN
100
AcDbBlockReference
   2
*G3
  10
12.59654
  20
16.75151
  30
0.0
   0
CIRCLE
   5
158
100
AcDbEntity
   8
MAIN
   6
CONTINUOUS
  62
      7
100
AcDbCircle
  10
0.93484
  20
17.37737
  30
0.0
  40
0.21875
   0
INSERT
   5
159
100
AcDbEntity
   8
MAIN
100
AcDbBlockReference
   2
*G4
  10
12.59654
  20
16.75151
  30
0.0
   0
SOLID
   5
15B
100
AcDbEntity
   8
MAIN
  62
      5
100
AcDbTrace
  10
4.35677
  20
15.85683
  30
0.0
  11
4.59502
  21
15.7557
  31
0.0
  12
4.51253
  22
15.65013
  32
0.0
  13
4.51253
  23
15.65013
  33
0.0
   0
LINE
   5
15A
100
AcDbEntity
   8
MAIN
   6
CONTINUOUS
  62
      5
100
AcDbLine
  10
4.35677
  20
15.85683
  30
0.0
  11
7.00537
  21
13.82737
  31
0.0
   0
LINE
   5
15C
100
AcDbEntity
   8
MAIN
   6
CONTINUOUS
  62
      5
100
AcDbLine
  10
7.00537
  20
13.82737
  30
0.0
  11
7.50537
  21
13.82737
  31
0.0
   0
INSERT
   5
15D
100
AcDbEntity
   8
MAIN
100
AcDbBlockReference
   2
*G5
  10
12.59654
  20
16.75151
  30
0.0
   0
SOLID
   5
15F
100
AcDbEntity
   8
MAIN
  62
      5
100
AcDbTrace
  10
2.8762
  20
16.66201
  30
0.0
  11
3.07447
  21
16.49564
  31
0.0
  12
2.96472
  22
16.4188
  32
0.0
  13
2.96472
  23
16.4188
  33
0.0
   0
LINE
   5
15E
100
AcDbEntity
   8
MAIN
   6
CONTINUOUS
  62
      5
100
AcDbLine
  10
2.8762
  20
16.66201
  30
0.0
  11
6.10537
  21
12.07737
  31
0.0
   0
LINE
   5
160
100
AcDbEntity
   8
MAIN
   6
CONTINUOUS
  62
      5
100
AcDbLine
  10
6.10537
  20
12.07737
  30
0.0
  11
6.60537
  21
12.07737
  31
0.0
   0
INSERT
   5
161
100
AcDbEntity
   8
MAIN
100
AcDbBlockReference
   2
*G6
  10
12.59654
  20
16.75151
  30
0.0
   0
SOLID
   5
163
100
AcDbEntity
   8
MAIN
  62
      5
100
AcDbTrace
  10
3.7443
  20
16.94827
  30
0.0
  11
4.00277
  21
16.93472
  31
0.0
  12
3.96136
  22
16.80731
  32
0.0
  13
3.96136
  23
16.80731
  33
0.0
   0
LINE
   5
162
100
AcDbEntity
   8
MAIN
   6
CONTINUOUS
  62
      5
100
AcDbLine
  10
3.7443
  20
16.94827
  30
0.0
  11
7.16826
  21
15.87737
  31
0.0
   0
LINE
   5
164
100
AcDbEntity
   8
MAIN
   6
CONTINUOUS
  62
      5
100
AcDbLine
  10
7.16826
  20
15.87737
  30
0.0
  11
7.66826
  21
15.87737
  31
0.0
   0
INSERT
   5
165
100
AcDbEntity
   8
MAIN
100
AcDbBlockReference
   2
*G7
  10
12.59654
  20
16.75151
  30
0.0
   0
INSERT
   5
166
100
AcDbEntity
   8
MAIN
100
AcDbBlockReference
   2
*G8
  10
12.59654
  20
16.75151
  30
0.0
   0
SOLID
   5
168
100
AcDbEntity
   8
MAIN
  62
      5
100
AcDbTrace
  10
3.99954
  20
17.48629
  30
0.0
  11
4.18572
  21
17.66608
  31
0.0
  12
4.25067
  22
17.5489
  32
0.0
  13
4.25067
  23
17.5489
  33
0.0
   0
LINE
   5
167
100
AcDbEntity
   8
MAIN
   6
CONTINUOUS
  62
      5
100
AcDbLine
  10
3.99954
  20
17.48629
  30
0.0
  11
7.46724
  21
19.47737
  31
0.0
   0
LINE
   5
169
100
AcDbEntity
   8
MAIN
   6
CONTINUOUS
  62
      5
100
AcDbLine
  10
7.46724
  20
19.47737
  30
0.0
  11
7.96724
  21
19.47737
  31
0.0
   0
INSERT
   5
16A
100
AcDbEntity
   8
MAIN
100
AcDbBlockReference
   2
*G9
  10
12.59654
  20
16.75151
  30
0.0
   0
TEXT
   5
16B
100
AcDbEntity
   8
MAIN
  62
      5
100
AcDbText
  10
8.18203
  20
19.1607
  30
0.0
  40
0.53334
   1
4 holes
  41
0.6
  11
8.18203
  21
19.1607
  31
0.0
100
AcDbText
  73
      3
   0
POLYLINE
   5
16C
100
AcDbEntity
   8
MAIN
   6
CONTINUOUS
  62
      7
100
AcDb2dPolyline
  66
      1
  10
0.0
  20
0.0
  30
0.0
  70
      1
  75
      5
   0
VERTEX
   5
16D
100
AcDbEntity
   8
MAIN
   6
CONTINUOUS
  62
      7
100
AcDbVertex
100
AcDb2dVertex
  10
-9.00411
  20
16.1625
  30
0.0
   0
VERTEX
   5
16E
100
AcDbEntity
   8
MAIN
   6
CONTINUOUS
  62
      7
100
AcDbVertex
100
AcDb2dVertex
  10
-8.48411
  20
16.1625
  30
0.0
   0
VERTEX
   5
16F
100
AcDbEntity
   8
MAIN
   6
CONTINUOUS
  62
      7
100
AcDbVertex
100
AcDb2dVertex
  10
-8.48411
  20
16.85
  30
0.0
   0
VERTEX
   5
170
100
AcDbEntity
   8
MAIN
   6
CONTINUOUS
  62
      7
100
AcDbVertex
100
AcDb2dVertex
  10
-8.89036
  20
17.25625
  30
0.0
   0
VERTEX
   5
171
100
AcDbEntity
   8
MAIN
   6
CONTINUOUS
  62
      7
100
AcDbVertex
100
AcDb2dVertex
  10
-8.89036
  20
17.44375
  30
0.0
   0
VERTEX
   5
172
100
AcDbEntity
   8
MAIN
   6
CONTINUOUS
  62
      7
100
AcDbVertex
100
AcDb2dVertex
  10
-8.48411
  20
17.85
  30
0.0
   0
VERTEX
   5
173
100
AcDbEntity
   8
MAIN
   6
CONTINUOUS
  62
      7
100
AcDbVertex
100
AcDb2dVertex
  10
-8.48411
  20
18.35
  30
0.0
   0
VERTEX
   5
174
100
AcDbEntity
   8
MAIN
   6
CONTINUOUS
  62
      7
100
AcDbVertex
100
AcDb2dVertex
  10
-13.48411
  20
18.35
  30
0.0
   0
VERTEX
   5
175
100
AcDbEntity
   8
MAIN
   6
CONTINUOUS
  62
      7
100
AcDbVertex
100
AcDb2dVertex
  10
-13.48411
  20
17.85
  30
0.0
   0
VERTEX
   5
176
100
AcDbEntity
   8
MAIN
   6
CONTINUOUS
  62
      7
100
AcDbVertex
100
AcDb2dVertex
  10
-13.07786
  20
17.44375
  30
0.0
   0
VERTEX
   5
177
100
AcDbEntity
   8
MAIN
   6
CONTINUOUS
  62
      7
100
AcDbVertex
100
AcDb2dVertex
  10
-13.07786
  20
17.25625
  30
0.0
   0
VERTEX
   5
178
100
AcDbEntity
   8
MAIN
   6
CONTINUOUS
  62
      7
100
AcDbVertex
100
AcDb2dVertex
  10
-13.48411
  20
16.85
  30
0.0
   0
VERTEX
   5
179
100
AcDbEntity
   8
MAIN
   6
CONTINUOUS
  62
      7
100
AcDbVertex
100
AcDb2dVertex
  10
-13.48411
  20
16.1625
  30
0.0
   0
VERTEX
   5
17A
100
AcDbEntity
   8
MAIN
   6
CONTINUOUS
  62
      7
100
AcDbVertex
100
AcDb2dVertex
  10
-12.96411
  20
16.1625
  30
0.0
   0
VERTEX
   5
17B
100
AcDbEntity
   8
MAIN
   6
CONTINUOUS
  62
      7
100
AcDbVertex
100
AcDb2dVertex
  10
-12.96411
  20
15.85
  30
0.0
   0
VERTEX
   5
17C
100
AcDbEntity
   8
MAIN
   6
CONTINUOUS
  62
      7
100
AcDbVertex
100
AcDb2dVertex
  10
-13.48411
  20
15.85
  30
0.0
   0
VERTEX
   5
17D
100
AcDbEntity
   8
MAIN
   6
CONTINUOUS
  62
      7
100
AcDbVertex
100
AcDb2dVertex
  10
-13.48411
  20
15.1
  30
0.0
   0
VERTEX
   5
17E
100
AcDbEntity
   8
MAIN
   6
CONTINUOUS
  62
      7
100
AcDbVertex
100
AcDb2dVertex
  10
-8.48411
  20
15.1
  30
0.0
   0
VERTEX
   5
17F
100
AcDbEntity
   8
MAIN
   6
CONTINUOUS
  62
      7
100
AcDbVertex
100
AcDb2dVertex
  10
-8.48411
  20
15.85
  30
0.0
   0
VERTEX
   5
180
100
AcDbEntity
   8
MAIN
   6
CONTINUOUS
  62
      7
100
AcDbVertex
100
AcDb2dVertex
  10
-9.00411
  20
15.85
  30
0.0
   0
SEQEND
   5
181
100
AcDbEntity
   8
MAIN
   6
CONTINUOUS
   0
LWPOLYLINE
   5
182
100
AcDbEntity
   8
MAIN
   6
CONTINUOUS
  62
      7
100
AcDbPolyline
  90
         5
  70
    129
  10
-12.96411
  20
16.1625
  10
-9.00411
  20
16.1625
  10
-9.00411
  20
15.85
  10
-12.96411
  20
15.85
  10
-12.96411
  20
16.1625
   0
LWPOLYLINE
   5
183
100
AcDbEntity
   8
MAIN
   6
CONTINUOUS
  62
      7
100
AcDbPolyline
  90
         5
  70
    129
  10
-13.07786
  20
17.44375
  10
-8.89036
  20
17.44375
  10
-8.89036
  20
17.25625
  10
-13.07786
  20
17.25625
  10
-13.07786
  20
17.44375
   0
LINE
   5
184
100
AcDbEntity
   8
MAIN
   6
CONTINUOUS
  62
      7
100
AcDbLine
  10
-13.48411
  20
17.85
  30
0.0
  11
-13.07786
  21
17.44375
  31
0.0
   0
LINE
   5
185
100
AcDbEntity
   8
MAIN
   6
CONTINUOUS
  62
      7
100
AcDbLine
  10
-13.48411
  20
16.85
  30
0.0
  11
-13.07786
  21
17.25625
  31
0.0
   0
LINE
   5
186
100
AcDbEntity
   8
MAIN
   6
CONTINUOUS
  62
      7
100
AcDbLine
  10
-13.48411
  20
17.85
  30
0.0
  11
-8.48411
  21
17.85
  31
0.0
   0
LINE
   5
187
100
AcDbEntity
   8
MAIN
   6
CONTINUOUS
  62
      7
100
AcDbLine
  10
-13.48411
  20
16.85
  30
0.0
  11
-8.48411
  21
16.85
  31
0.0
   0
LINE
   5
188
100
AcDbEntity
   8
MAIN
   6
CONTINUOUS
  62
      5
100
AcDbLine
  10
-13.0875
  20
29.075
  30
0.0
  11
-13.0875
  21
30.24
  31
0.0
   0
LINE
   5
189
100
AcDbEntity
   8
MAIN
   6
CONTINUOUS
  62
      5
100
AcDbLine
  10
-8.0875
  20
29.075
  30
0.0
  11
-8.0875
  21
30.24
  31
0.0
   0
LINE
   5
18A
100
AcDbEntity
   8
MAIN
   6
CONTINUOUS
  62
      5
100
AcDbLine
  10
-13.2125
  20
29.99
  30
0.0
  11
-13.0875
  21
29.99
  31
0.0
   0
LINE
   5
18B
100
AcDbEntity
   8
MAIN
   6
CONTINUOUS
  62
      5
100
AcDbLine
  10
-8.0875
  20
29.99
  30
0.0
  11
-7.9625
  21
29.99
  31
0.0
   0
LINE
   5
18D
100
AcDbEntity
   8
MAIN
  62
      5
100
AcDbLine
  10
-12.99911
  20
30.07839
  30
0.0
  11
-13.17589
  21
29.90161
  31
0.0
   0
LINE
   5
18E
100
AcDbEntity
   8
MAIN
  62
      5
100
AcDbLine
  10
-8.17589
  20
29.90161
  30
0.0
  11
-7.99911
  21
30.07839
  31
0.0
   0
LINE
   5
18C
100
AcDbEntity
   8
MAIN
   6
CONTINUOUS
  62
      5
100
AcDbLine
  10
-13.0875
  20
29.99
  30
0.0
  11
-8.0875
  21
29.99
  31
0.0
   0
INSERT
   5
18F
100
AcDbEntity
   8
MAIN
100
AcDbBlockReference
   2
*G10
  10
12.59654
  20
16.75151
  30
0.0
   0
LINE
   5
190
100
AcDbEntity
   8
MAIN
   6
CONTINUOUS
  62
      5
100
AcDbLine
  10
-13.2125
  20
28.95
  30
0.0
  11
-14.3525
  21
28.95
  31
0.0
   0
LINE
   5
191
100
AcDbEntity
   8
MAIN
   6
CONTINUOUS
  62
      5
100
AcDbLine
  10
-13.2125
  20
28.6375
  30
0.0
  11
-14.3525
  21
28.6375
  31
0.0
   0
LINE
   5
192
100
AcDbEntity
   8
MAIN
   6
CONTINUOUS
  62
      5
100
AcDbLine
  10
-14.1025
  20
29.075
  30
0.0
  11
-14.1025
  21
28.95
  31
0.0
   0
LINE
   5
193
100
AcDbEntity
   8
MAIN
   6
CONTINUOUS
  62
      5
100
AcDbLine
  10
-14.1025
  20
28.6375
  30
0.0
  11
-14.1025
  21
28.5125
  31
0.0
   0
LINE
   5
194
100
AcDbEntity
   8
MAIN
   6
CONTINUOUS
  62
      5
100
AcDbLine
  10
-14.1025
  20
28.95
  30
0.0
  11
-14.1025
  21
31.41515
  31
0.0
   0
LINE
   5
196
100
AcDbEntity
   8
MAIN
  62
      5
100
AcDbLine
  10
-14.01411
  20
28.86161
  30
0.0
  11
-14.19089
  21
29.03839
  31
0.0
   0
LINE
   5
197
100
AcDbEntity
   8
MAIN
  62
      5
100
AcDbLine
  10
-14.19089
  20
28.72589
  30
0.0
  11
-14.01411
  21
28.54911
  31
0.0
   0
LINE
   5
195
100
AcDbEntity
   8
MAIN
   6
CONTINUOUS
  62
      5
100
AcDbLine
  10
-14.1025
  20
28.95
  30
0.0
  11
-14.1025
  21
28.6375
  31
0.0
   0
INSERT
   5
198
100
AcDbEntity
   8
MAIN
100
AcDbBlockReference
   2
*G11
  10
12.59654
  20
16.75151
  30
0.0
   0
LINE
   5
199
100
AcDbEntity
   8
MAIN
   6
CONTINUOUS
  62
      5
100
AcDbLine
  10
-13.2125
  20
27.2625
  30
0.0
  11
-14.3525
  21
27.2625
  31
0.0
   0
LINE
   5
19A
100
AcDbEntity
   8
MAIN
   6
CONTINUOUS
  62
      5
100
AcDbLine
  10
-13.2125
  20
26.95
  30
0.0
  11
-14.3525
  21
26.95
  31
0.0
   0
LINE
   5
19B
100
AcDbEntity
   8
MAIN
   6
CONTINUOUS
  62
      5
100
AcDbLine
  10
-14.1025
  20
27.3875
  30
0.0
  11
-14.1025
  21
27.2625
  31
0.0
   0
LINE
   5
19C
100
AcDbEntity
   8
MAIN
   6
CONTINUOUS
  62
      5
100
AcDbLine
  10
-14.1025
  20
26.95
  30
0.0
  11
-14.1025
  21
26.825
  31
0.0
   0
LINE
   5
19D
100
AcDbEntity
   8
MAIN
   6
CONTINUOUS
  62
      5
100
AcDbLine
  10
-14.1025
  20
26.95
  30
0.0
  11
-14.1025
  21
24.67
  31
0.0
   0
LINE
   5
19F
100
AcDbEntity
   8
MAIN
  62
      5
100
AcDbLine
  10
-14.01411
  20
27.17411
  30
0.0
  11
-14.19089
  21
27.35089
  31
0.0
   0
LINE
   5
1A0
100
AcDbEntity
   8
MAIN
  62
      5
100
AcDbLine
  10
-14.19089
  20
27.03839
  30
0.0
  11
-14.01411
  21
26.86161
  31
0.0
   0
LINE
   5
19E
100
AcDbEntity
   8
MAIN
   6
CONTINUOUS
  62
      5
100
AcDbLine
  10
-14.1025
  20
27.2625
  30
0.0
  11
-14.1025
  21
26.95
  31
0.0
   0
INSERT
   5
1A1
100
AcDbEntity
   8
MAIN
100
AcDbBlockReference
   2
*G12
  10
12.59654
  20
16.75151
  30
0.0
   0
LINE
   5
1A2
100
AcDbEntity
   8
MAIN
   6
CONTINUOUS
  62
      5
100
AcDbLine
  10
-7.23986
  20
27.43784
  30
0.0
  11
-6.0975
  21
26.37
  31
0.0
   0
LINE
   5
1A3
100
AcDbEntity
   8
MAIN
   6
CONTINUOUS
  62
      5
100
AcDbLine
  10
-6.0975
  20
26.37
  30
0.0
  11
-5.5975
  21
26.37
  31
0.0
   0
SOLID
   5
1A5
100
AcDbEntity
   8
MAIN
  62
      5
100
AcDbTrace
  10
-8.33566
  20
28.46216
  30
0.0
  11
-8.10929
  21
28.33668
  31
0.0
  12
-8.20236
  22
28.24031
  32
0.0
  13
-8.20236
  23
28.24031
  33
0.0
   0
SOLID
   5
1A6
100
AcDbEntity
   8
MAIN
  62
      5
100
AcDbTrace
  10
-7.23986
  20
27.43784
  30
0.0
  11
-7.46623
  21
27.56332
  31
0.0
  12
-7.37316
  22
27.65969
  32
0.0
  13
-7.37316
  23
27.65969
  33
0.0
   0
LINE
   5
1A4
100
AcDbEntity
   8
MAIN
   6
CONTINUOUS
  62
      5
100
AcDbLine
  10
-8.33566
  20
28.46216
  30
0.0
  11
-7.23986
  21
27.43784
  31
0.0
   0
INSERT
   5
1A7
100
AcDbEntity
   8
MAIN
100
AcDbBlockReference
   2
*G13
  10
12.59654
  20
16.75151
  30
0.0
   0
LINE
   5
1A8
100
AcDbEntity
   8
MAIN
   6
CONTINUOUS
  62
      5
100
AcDbLine
  10
-7.78776
  20
28.04
  30
0.0
  11
-7.78776
  21
27.86
  31
0.0
   0
LINE
   5
1A9
100
AcDbEntity
   8
MAIN
   6
CONTINUOUS
  62
      5
100
AcDbLine
  10
-7.70089
  20
27.95
  30
0.0
  11
-7.87463
  21
27.95
  31
0.0
   0
LINE
   5
1AA
100
AcDbEntity
   8
MAIN
   6
CONTINUOUS
  62
      5
100
AcDbLine
  10
8.11611
  20
28.3025
  30
0.0
  11
8.11611
  21
28.1225
  31
0.0
   0
LINE
   5
1AB
100
AcDbEntity
   8
MAIN
   6
CONTINUOUS
  62
      5
100
AcDbLine
  10
8.20298
  20
28.2125
  30
0.0
  11
8.02924
  21
28.2125
  31
0.0
   0
LINE
   5
1AC
100
AcDbEntity
   8
MAIN
   6
CONTINUOUS
  62
      5
100
AcDbLine
  10
2.76812
  20
29.5875
  30
0.0
  11
2.76812
  21
30.54
  31
0.0
   0
LINE
   5
1AD
100
AcDbEntity
   8
MAIN
   6
CONTINUOUS
  62
      5
100
AcDbLine
  10
7.76812
  20
29.5875
  30
0.0
  11
7.76812
  21
30.54
  31
0.0
   0
LINE
   5
1AE
100
AcDbEntity
   8
MAIN
   6
CONTINUOUS
  62
      5
100
AcDbLine
  10
2.64312
  20
30.29
  30
0.0
  11
2.76812
  21
30.29
  31
0.0
   0
LINE
   5
1AF
100
AcDbEntity
   8
MAIN
   6
CONTINUOUS
  62
      5
100
AcDbLine
  10
7.76812
  20
30.29
  30
0.0
  11
7.89312
  21
30.29
  31
0.0
   0
LINE
   5
1B1
100
AcDbEntity
   8
MAIN
  62
      5
100
AcDbLine
  10
2.85651
  20
30.37839
  30
0.0
  11
2.67973
  21
30.20161
  31
0.0
   0
LINE
   5
1B2
100
AcDbEntity
   8
MAIN
  62
      5
100
AcDbLine
  10
7.67973
  20
30.20161
  30
0.0
  11
7.85651
  21
30.37839
  31
0.0
   0
LINE
   5
1B0
100
AcDbEntity
   8
MAIN
   6
CONTINUOUS
  62
      5
100
AcDbLine
  10
2.76812
  20
30.29
  30
0.0
  11
7.76812
  21
30.29
  31
0.0
   0
INSERT
   5
1B3
100
AcDbEntity
   8
MAIN
100
AcDbBlockReference
   2
*G14
  10
12.59654
  20
16.75151
  30
0.0
   0
LINE
   5
1B4
100
AcDbEntity
   8
MAIN
   6
CONTINUOUS
  62
      5
100
AcDbLine
  10
2.64312
  20
29.4625
  30
0.0
  11
1.7925
  21
29.4625
  31
0.0
   0
LINE
   5
1B5
100
AcDbEntity
   8
MAIN
   6
CONTINUOUS
  62
      5
100
AcDbLine
  10
2.64312
  20
29.15
  30
0.0
  11
1.7925
  21
29.15
  31
0.0
   0
LINE
   5
1B6
100
AcDbEntity
   8
MAIN
   6
CONTINUOUS
  62
      5
100
AcDbLine
  10
2.0425
  20
29.5875
  30
0.0
  11
2.0425
  21
29.4625
  31
0.0
   0
LINE
   5
1B7
100
AcDbEntity
   8
MAIN
   6
CONTINUOUS
  62
      5
100
AcDbLine
  10
2.0425
  20
29.15
  30
0.0
  11
2.0425
  21
29.025
  31
0.0
   0
LINE
   5
1B8
100
AcDbEntity
   8
MAIN
   6
CONTINUOUS
  62
      5
100
AcDbLine
  10
2.0425
  20
29.4625
  30
0.0
  11
2.0425
  21
31.71
  31
0.0
   0
LINE
   5
1BA
100
AcDbEntity
   8
MAIN
  62
      5
100
AcDbLine
  10
2.13089
  20
29.37411
  30
0.0
  11
1.95411
  21
29.55089
  31
0.0
   0
LINE
   5
1BB
100
AcDbEntity
   8
MAIN
  62
      5
100
AcDbLine
  10
1.95411
  20
29.23839
  30
0.0
  11
2.13089
  21
29.06161
  31
0.0
   0
LINE
   5
1B9
100
AcDbEntity
   8
MAIN
   6
CONTINUOUS
  62
      5
100
AcDbLine
  10
2.0425
  20
29.4625
  30
0.0
  11
2.0425
  21
29.15
  31
0.0
   0
INSERT
   5
1BC
100
AcDbEntity
   8
MAIN
100
AcDbBlockReference
   2
*G15
  10
12.59654
  20
16.75151
  30
0.0
   0
LINE
   5
1BD
100
AcDbEntity
   8
MAIN
   6
CONTINUOUS
  62
      5
100
AcDbLine
  10
2.64312
  20
27.275
  30
0.0
  11
1.7925
  21
27.275
  31
0.0
   0
LINE
   5
1BE
100
AcDbEntity
   8
MAIN
   6
CONTINUOUS
  62
      5
100
AcDbLine
  10
2.64312
  20
26.9625
  30
0.0
  11
1.7925
  21
26.9625
  31
0.0
   0
LINE
   5
1BF
100
AcDbEntity
   8
MAIN
   6
CONTINUOUS
  62
      5
100
AcDbLine
  10
2.0425
  20
27.4
  30
0.0
  11
2.0425
  21
27.275
  31
0.0
   0
LINE
   5
1C0
100
AcDbEntity
   8
MAIN
   6
CONTINUOUS
  62
      5
100
AcDbLine
  10
2.0425
  20
26.9625
  30
0.0
  11
2.0425
  21
26.8375
  31
0.0
   0
LINE
   5
1C1
100
AcDbEntity
   8
MAIN
   6
CONTINUOUS
  62
      5
100
AcDbLine
  10
2.0425
  20
26.9625
  30
0.0
  11
2.0425
  21
24.59
  31
0.0
   0
LINE
   5
1C3
100
AcDbEntity
   8
MAIN
  62
      5
100
AcDbLine
  10
2.13089
  20
27.18661
  30
0.0
  11
1.95411
  21
27.36339
  31
0.0
   0
LINE
   5
1C4
100
AcDbEntity
   8
MAIN
  62
      5
100
AcDbLine
  10
1.95411
  20
27.05089
  30
0.0
  11
2.13089
  21
26.87411
  31
0.0
   0
LINE
   5
1C2
100
AcDbEntity
   8
MAIN
   6
CONTINUOUS
  62
      5
100
AcDbLine
  10
2.0425
  20
27.275
  30
0.0
  11
2.0425
  21
26.9625
  31
0.0
   0
INSERT
   5
1C5
100
AcDbEntity
   8
MAIN
100
AcDbBlockReference
   2
*G16
  10
12.59654
  20
16.75151
  30
0.0
   0
LINE
   5
1C6
100
AcDbEntity
   8
MAIN
   6
CONTINUOUS
  62
      5
100
AcDbLine
  10
8.82322
  20
27.50539
  30
0.0
  11
10.1225
  21
26.20611
  31
0.0
   0
LINE
   5
1C7
100
AcDbEntity
   8
MAIN
   6
CONTINUOUS
  62
      5
100
AcDbLine
  10
10.1225
  20
26.20611
  30
0.0
  11
10.6225
  21
26.20611
  31
0.0
   0
SOLID
   5
1C9
100
AcDbEntity
   8
MAIN
  62
      5
100
AcDbTrace
  10
7.409
  20
28.91961
  30
0.0
  11
7.63314
  21
28.7902
  31
0.0
  12
7.53841
  22
28.69547
  32
0.0
  13
7.53841
  23
28.69547
  33
0.0
   0
SOLID
   5
1CA
100
AcDbEntity
   8
MAIN
  62
      5
100
AcDbTrace
  10
8.82322
  20
27.50539
  30
0.0
  11
8.59908
  21
27.6348
  31
0.0
  12
8.69381
  22
27.72953
  32
0.0
  13
8.69381
  23
27.72953
  33
0.0
   0
LINE
   5
1C8
100
AcDbEntity
   8
MAIN
   6
CONTINUOUS
  62
      5
100
AcDbLine
  10
7.409
  20
28.91961
  30
0.0
  11
8.82322
  21
27.50539
  31
0.0
   0
INSERT
   5
1CB
100
AcDbEntity
   8
MAIN
100
AcDbBlockReference
   2
*G17
  10
12.59654
  20
16.75151
  30
0.0
   0
LINE
   5
1CC
100
AcDbEntity
   8
MAIN
   6
CONTINUOUS
  62
      5
100
AcDbLine
  10
-13.48411
  20
18.475
  30
0.0
  11
-13.48411
  21
21.2
  31
0.0
   0
LINE
   5
1CD
100
AcDbEntity
   8
MAIN
   6
CONTINUOUS
  62
      5
100
AcDbLine
  10
-8.48411
  20
18.475
  30
0.0
  11
-8.48411
  21
21.2
  31
0.0
   0
LINE
   5
1CE
100
AcDbEntity
   8
MAIN
   6
CONTINUOUS
  62
      5
100
AcDbLine
  10
-13.60911
  20
20.95
  30
0.0
  11
-13.48411
  21
20.95
  31
0.0
   0
LINE
   5
1CF
100
AcDbEntity
   8
MAIN
   6
CONTINUOUS
  62
      5
100
AcDbLine
  10
-8.48411
  20
20.95
  30
0.0
  11
-8.35911
  21
20.95
  31
0.0
   0
LINE
   5
1D1
100
AcDbEntity
   8
MAIN
  62
      5
100
AcDbLine
  10
-13.39572
  20
21.03839
  30
0.0
  11
-13.5725
  21
20.86161
  31
0.0
   0
LINE
   5
1D2
100
AcDbEntity
   8
MAIN
  62
      5
100
AcDbLine
  10
-8.5725
  20
20.86161
  30
0.0
  11
-8.39572
  21
21.03839
  31
0.0
   0
LINE
   5
1D0
100
AcDbEntity
   8
MAIN
   6
CONTINUOUS
  62
      5
100
AcDbLine
  10
-13.48411
  20
20.95
  30
0.0
  11
-8.48411
  21
20.95
  31
0.0
   0
INSERT
   5
1D3
100
AcDbEntity
   8
MAIN
100
AcDbBlockReference
   2
*G18
  10
12.59654
  20
16.75151
  30
0.0
   0
LINE
   5
1D4
100
AcDbEntity
   8
MAIN
   6
CONTINUOUS
  62
      5
100
AcDbLine
  10
-13.60911
  20
18.35
  30
0.0
  11
-15.9875
  21
18.35
  31
0.0
   0
LINE
   5
1D5
100
AcDbEntity
   8
MAIN
   6
CONTINUOUS
  62
      5
100
AcDbLine
  10
-13.60911
  20
15.1
  30
0.0
  11
-15.9875
  21
15.1
  31
0.0
   0
LINE
   5
1D6
100
AcDbEntity
   8
MAIN
   6
CONTINUOUS
  62
      5
100
AcDbLine
  10
-15.7375
  20
18.475
  30
0.0
  11
-15.7375
  21
18.35
  31
0.0
   0
LINE
   5
1D7
100
AcDbEntity
   8
MAIN
   6
CONTINUOUS
  62
      5
100
AcDbLine
  10
-15.7375
  20
15.1
  30
0.0
  11
-15.7375
  21
14.975
  31
0.0
   0
LINE
   5
1D9
100
AcDbEntity
   8
MAIN
  62
      5
100
AcDbLine
  10
-15.64911
  20
18.26161
  30
0.0
  11
-15.82589
  21
18.43839
  31
0.0
   0
LINE
   5
1DA
100
AcDbEntity
   8
MAIN
  62
      5
100
AcDbLine
  10
-15.82589
  20
15.18839
  30
0.0
  11
-15.64911
  21
15.01161
  31
0.0
   0
LINE
   5
1D8
100
AcDbEntity
   8
MAIN
   6
CONTINUOUS
  62
      5
100
AcDbLine
  10
-15.7375
  20
18.35
  30
0.0
  11
-15.7375
  21
15.1
  31
0.0
   0
INSERT
   5
1DB
100
AcDbEntity
   8
MAIN
100
AcDbBlockReference
   2
*G19
  10
12.59654
  20
16.75151
  30
0.0
   0
LINE
   5
1DC
100
AcDbEntity
   8
MAIN
   6
CONTINUOUS
  62
      5
100
AcDbLine
  10
-13.60911
  20
18.35
  30
0.0
  11
-14.3325
  21
18.35
  31
0.0
   0
LINE
   5
1DD
100
AcDbEntity
   8
MAIN
   6
CONTINUOUS
  62
      5
100
AcDbLine
  10
-13.60911
  20
17.85
  30
0.0
  11
-14.3325
  21
17.85
  31
0.0
   0
LINE
   5
1DE
100
AcDbEntity
   8
MAIN
   6
CONTINUOUS
  62
      5
100
AcDbLine
  10
-14.0825
  20
18.475
  30
0.0
  11
-14.0825
  21
18.35
  31
0.0
   0
LINE
   5
1DF
100
AcDbEntity
   8
MAIN
   6
CONTINUOUS
  62
      5
100
AcDbLine
  10
-14.0825
  20
17.85
  30
0.0
  11
-14.0825
  21
17.725
  31
0.0
   0
LINE
   5
1E0
100
AcDbEntity
   8
MAIN
   6
CONTINUOUS
  62
      5
100
AcDbLine
  10
-14.0825
  20
18.35
  30
0.0
  11
-14.0825
  21
20.66513
  31
0.0
   0
LINE
   5
1E2
100
AcDbEntity
   8
MAIN
  62
      5
100
AcDbLine
  10
-13.99411
  20
18.26161
  30
0.0
  11
-14.17089
  21
18.43839
  31
0.0
   0
LINE
   5
1E3
100
AcDbEntity
   8
MAIN
  62
      5
100
AcDbLine
  10
-14.17089
  20
17.93839
  30
0.0
  11
-13.99411
  21
17.76161
  31
0.0
   0
LINE
   5
1E1
100
AcDbEntity
   8
MAIN
   6
CONTINUOUS
  62
      5
100
AcDbLine
  10
-14.0825
  20
18.35
  30
0.0
  11
-14.0825
  21
17.85
  31
0.0
   0
INSERT
   5
1E4
100
AcDbEntity
   8
MAIN
100
AcDbBlockReference
   2
*G20
  10
12.59654
  20
16.75151
  30
0.0
   0
LINE
   5
1E5
100
AcDbEntity
   8
MAIN
   6
CONTINUOUS
  62
      5
100
AcDbLine
  10
-13.60911
  20
15.85
  30
0.0
  11
-14.37272
  21
15.85
  31
0.0
   0
LINE
   5
1E6
100
AcDbEntity
   8
MAIN
   6
CONTINUOUS
  62
      5
100
AcDbLine
  10
-13.60911
  20
15.1
  30
0.0
  11
-14.37272
  21
15.1
  31
0.0
   0
LINE
   5
1E7
100
AcDbEntity
   8
MAIN
   6
CONTINUOUS
  62
      5
100
AcDbLine
  10
-14.12272
  20
15.975
  30
0.0
  11
-14.12272
  21
15.85
  31
0.0
   0
LINE
   5
1E8
100
AcDbEntity
   8
MAIN
   6
CONTINUOUS
  62
      5
100
AcDbLine
  10
-14.12272
  20
15.1
  30
0.0
  11
-14.12272
  21
14.975
  31
0.0
   0
LINE
   5
1E9
100
AcDbEntity
   8
MAIN
   6
CONTINUOUS
  62
      5
100
AcDbLine
  10
-14.12272
  20
15.1
  30
0.0
  11
-14.12272
  21
12.43
  31
0.0
   0
LINE
   5
1EB
100
AcDbEntity
   8
MAIN
  62
      5
100
AcDbLine
  10
-14.03433
  20
15.76161
  30
0.0
  11
-14.21111
  21
15.93839
  31
0.0
   0
LINE
   5
1EC
100
AcDbEntity
   8
MAIN
  62
      5
100
AcDbLine
  10
-14.21111
  20
15.18839
  30
0.0
  11
-14.03433
  21
15.01161
  31
0.0
   0
LINE
   5
1EA
100
AcDbEntity
   8
MAIN
   6
CONTINUOUS
  62
      5
100
AcDbLine
  10
-14.12272
  20
15.85
  30
0.0
  11
-14.12272
  21
15.1
  31
0.0
   0
INSERT
   5
1ED
100
AcDbEntity
   8
MAIN
100
AcDbBlockReference
   2
*G21
  10
12.59654
  20
16.75151
  30
0.0
   0
LINE
   5
1EE
100
AcDbEntity
   8
MAIN
   6
CONTINUOUS
  62
      5
100
AcDbLine
  10
-8.35911
  20
16.1625
  30
0.0
  11
-6.9036
  21
16.1625
  31
0.0
   0
LINE
   5
1EF
100
AcDbEntity
   8
MAIN
   6
CONTINUOUS
  62
      5
100
AcDbLine
  10
-8.35911
  20
15.85
  30
0.0
  11
-6.9036
  21
15.85
  31
0.0
   0
LINE
   5
1F0
100
AcDbEntity
   8
MAIN
   6
CONTINUOUS
  62
      5
100
AcDbLine
  10
-7.1536
  20
16.2875
  30
0.0
  11
-7.1536
  21
16.1625
  31
0.0
   0
LINE
   5
1F1
100
AcDbEntity
   8
MAIN
   6
CONTINUOUS
  62
      5
100
AcDbLine
  10
-7.1536
  20
15.85
  30
0.0
  11
-7.1536
  21
15.725
  31
0.0
   0
LINE
   5
1F2
100
AcDbEntity
   8
MAIN
   6
CONTINUOUS
  62
      5
100
AcDbLine
  10
-7.1536
  20
15.85
  30
0.0
  11
-7.1536
  21
12.79
  31
0.0
   0
LINE
   5
1F4
100
AcDbEntity
   8
MAIN
  62
      5
100
AcDbLine
  10
-7.06521
  20
16.07411
  30
0.0
  11
-7.24199
  21
16.25089
  31
0.0
   0
LINE
   5
1F5
100
AcDbEntity
   8
MAIN
  62
      5
100
AcDbLine
  10
-7.24199
  20
15.93839
  30
0.0
  11
-7.06521
  21
15.76161
  31
0.0
   0
LINE
   5
1F3
100
AcDbEntity
   8
MAIN
   6
CONTINUOUS
  62
      5
100
AcDbLine
  10
-7.1536
  20
16.1625
  30
0.0
  11
-7.1536
  21
15.85
  31
0.0
   0
INSERT
   5
1F6
100
AcDbEntity
   8
MAIN
100
AcDbBlockReference
   2
*G22
  10
12.59654
  20
16.75151
  30
0.0
   0
LINE
   5
1F7
100
AcDbEntity
   8
MAIN
   6
CONTINUOUS
  62
      5
100
AcDbLine
  10
-8.35911
  20
17.85
  30
0.0
  11
-6.9075
  21
17.85
  31
0.0
   0
LINE
   5
1F8
100
AcDbEntity
   8
MAIN
   6
CONTINUOUS
  62
      5
100
AcDbLine
  10
-8.35911
  20
16.85
  30
0.0
  11
-6.9075
  21
16.85
  31
0.0
   0
LINE
   5
1F9
100
AcDbEntity
   8
MAIN
   6
CONTINUOUS
  62
      5
100
AcDbLine
  10
-7.1575
  20
17.975
  30
0.0
  11
-7.1575
  21
17.85
  31
0.0
   0
LINE
   5
1FA
100
AcDbEntity
   8
MAIN
   6
CONTINUOUS
  62
      5
100
AcDbLine
  10
-7.1575
  20
16.85
  30
0.0
  11
-7.1575
  21
16.725
  31
0.0
   0
LINE
   5
1FB
100
AcDbEntity
   8
MAIN
   6
CONTINUOUS
  62
      5
100
AcDbLine
  10
-7.1575
  20
17.85
  30
0.0
  11
-7.1575
  21
20.57
  31
0.0
   0
LINE
   5
1FD
100
AcDbEntity
   8
MAIN
  62
      5
100
AcDbLine
  10
-7.06911
  20
17.76161
  30
0.0
  11
-7.24589
  21
17.93839
  31
0.0
   0
LINE
   5
1FE
100
AcDbEntity
   8
MAIN
  62
      5
100
AcDbLine
  10
-7.24589
  20
16.93839
  30
0.0
  11
-7.06911
  21
16.76161
  31
0.0
   0
LINE
   5
1FC
100
AcDbEntity
   8
MAIN
   6
CONTINUOUS
  62
      5
100
AcDbLine
  10
-7.1575
  20
17.85
  30
0.0
  11
-7.1575
  21
16.85
  31
0.0
   0
INSERT
   5
1FF
100
AcDbEntity
   8
MAIN
100
AcDbBlockReference
   2
*G23
  10
12.59654
  20
16.75151
  30
0.0
   0
LINE
   5
200
100
AcDbEntity
   8
MAIN
   6
CONTINUOUS
  62
      5
100
AcDbLine
  10
-13.60911
  20
16.85
  30
0.0
  11
-14.6275
  21
16.85
  31
0.0
   0
LINE
   5
201
100
AcDbEntity
   8
MAIN
   6
CONTINUOUS
  62
      5
100
AcDbLine
  10
-13.60911
  20
16.1625
  30
0.0
  11
-14.6275
  21
16.1625
  31
0.0
   0
LINE
   5
202
100
AcDbEntity
   8
MAIN
   6
CONTINUOUS
  62
      5
100
AcDbLine
  10
-14.3775
  20
16.975
  30
0.0
  11
-14.3775
  21
16.85
  31
0.0
   0
LINE
   5
203
100
AcDbEntity
   8
MAIN
   6
CONTINUOUS
  62
      5
100
AcDbLine
  10
-14.3775
  20
16.1625
  30
0.0
  11
-14.3775
  21
16.0375
  31
0.0
   0
LINE
   5
205
100
AcDbEntity
   8
MAIN
  62
      5
100
AcDbLine
  10
-14.28911
  20
16.76161
  30
0.0
  11
-14.46589
  21
16.93839
  31
0.0
   0
LINE
   5
206
100
AcDbEntity
   8
MAIN
  62
      5
100
AcDbLine
  10
-14.46589
  20
16.25089
  30
0.0
  11
-14.28911
  21
16.07411
  31
0.0
   0
LINE
   5
204
100
AcDbEntity
   8
MAIN
   6
CONTINUOUS
  62
      5
100
AcDbLine
  10
-14.3775
  20
16.85
  30
0.0
  11
-14.3775
  21
16.1625
  31
0.0
   0
INSERT
   5
207
100
AcDbEntity
   8
MAIN
100
AcDbBlockReference
   2
*G24
  10
12.59654
  20
16.75151
  30
0.0
   0
LINE
   5
208
100
AcDbEntity
   8
MAIN
   6
CONTINUOUS
  62
      5
100
AcDbLine
  10
-8.39572
  20
17.93839
  30
0.0
  11
-6.15568
  21
20.17843
  31
0.0
   0
LINE
   5
209
100
AcDbEntity
   8
MAIN
   6
CONTINUOUS
  62
      5
100
AcDbLine
  10
-8.39572
  20
16.76161
  30
0.0
  11
-6.15568
  21
14.52157
  31
0.0
   0
SOLID
   5
20A
100
AcDbEntity
   8
MAIN
  62
      5
100
AcDbTrace
  10
-6.33245
  20
20.00166
  30
0.0
  11
-6.10831
  21
19.87225
  31
0.0
  12
-6.20304
  22
19.77752
  32
0.0
  13
-6.20304
  23
19.77752
  33
0.0
   0
SOLID
   5
20B
100
AcDbEntity
   8
MAIN
  62
      5
100
AcDbTrace
  10
-6.33245
  20
14.69834
  30
0.0
  11
-6.20304
  21
14.92248
  31
0.0
  12
-6.10831
  22
14.82775
  32
0.0
  13
-6.10831
  23
14.82775
  33
0.0
   0
ARC
   5
20C
100
AcDbEntity
   8
MAIN
   6
CONTINUOUS
  62
      5
100
AcDbCircle
  10
-8.98411
  20
17.35
  30
0.0
  40
3.75001
100
AcDbArc
  50
315.0
  51
45.0
   0
INSERT
   5
20D
100
AcDbEntity
   8
MAIN
100
AcDbBlockReference
   2
*G25
  10
12.59654
  20
16.75151
  30
0.0
   0
LINE
   5
20E
100
AcDbEntity
   8
MAIN
   6
CONTINUOUS
  62
      5
100
AcDbLine
  10
-13.07786
  20
17.56875
  30
0.0
  11
-13.07786
  21
19.72
  31
0.0
   0
LINE
   5
20F
100
AcDbEntity
   8
MAIN
   6
CONTINUOUS
  62
      5
100
AcDbLine
  10
-8.89036
  20
17.56875
  30
0.0
  11
-8.89036
  21
19.72
  31
0.0
   0
LINE
   5
210
100
AcDbEntity
   8
MAIN
   6
CONTINUOUS
  62
      5
100
AcDbLine
  10
-13.20286
  20
19.47
  30
0.0
  11
-13.07786
  21
19.47
  31
0.0
   0
LINE
   5
211
100
AcDbEntity
   8
MAIN
   6
CONTINUOUS
  62
      5
100
AcDbLine
  10
-8.89036
  20
19.47
  30
0.0
  11
-8.76536
  21
19.47
  31
0.0
   0
LINE
   5
213
100
AcDbEntity
   8
MAIN
  62
      5
100
AcDbLine
  10
-12.98947
  20
19.55839
  30
0.0
  11
-13.16625
  21
19.38161
  31
0.0
   0
LINE
   5
214
100
AcDbEntity
   8
MAIN
  62
      5
100
AcDbLine
  10
-8.97875
  20
19.38161
  30
0.0
  11
-8.80197
  21
19.55839
  31
0.0
   0
LINE
   5
212
100
AcDbEntity
   8
MAIN
   6
CONTINUOUS
  62
      5
100
AcDbLine
  10
-13.07786
  20
19.47
  30
0.0
  11
-8.89036
  21
19.47
  31
0.0
   0
INSERT
   5
215
100
AcDbEntity
   8
MAIN
100
AcDbBlockReference
   2
*G26
  10
12.59654
  20
16.75151
  30
0.0
   0
LINE
   5
216
100
AcDbEntity
   8
MAIN
   6
CONTINUOUS
  62
      5
100
AcDbLine
  10
-12.96411
  20
15.725
  30
0.0
  11
-12.96411
  21
12.88
  31
0.0
   0
LINE
   5
217
100
AcDbEntity
   8
MAIN
   6
CONTINUOUS
  62
      5
100
AcDbLine
  10
-9.00411
  20
15.725
  30
0.0
  11
-9.00411
  21
12.88
  31
0.0
   0
LINE
   5
218
100
AcDbEntity
   8
MAIN
   6
CONTINUOUS
  62
      5
100
AcDbLine
  10
-13.08911
  20
13.13
  30
0.0
  11
-12.96411
  21
13.13
  31
0.0
   0
LINE
   5
219
100
AcDbEntity
   8
MAIN
   6
CONTINUOUS
  62
      5
100
AcDbLine
  10
-9.00411
  20
13.13
  30
0.0
  11
-8.87911
  21
13.13
  31
0.0
   0
LINE
   5
21B
100
AcDbEntity
   8
MAIN
  62
      5
100
AcDbLine
  10
-12.87572
  20
13.21839
  30
0.0
  11
-13.0525
  21
13.04161
  31
0.0
   0
LINE
   5
21C
100
AcDbEntity
   8
MAIN
  62
      5
100
AcDbLine
  10
-9.0925
  20
13.04161
  30
0.0
  11
-8.91572
  21
13.21839
  31
0.0
   0
LINE
   5
21A
100
AcDbEntity
   8
MAIN
   6
CONTINUOUS
  62
      5
100
AcDbLine
  10
-12.96411
  20
13.13
  30
0.0
  11
-9.00411
  21
13.13
  31
0.0
   0
INSERT
   5
21D
100
AcDbEntity
   8
MAIN
100
AcDbBlockReference
   2
*G27
  10
12.59654
  20
16.75151
  30
0.0
   0
TEXT
   5
21E
100
AcDbEntity
   8
MAIN
  62
      5
100
AcDbText
  10
-14.87434
  20
24.07667
  30
0.0
  40
0.8
   1
1 - 1/2" Tubing Die
  41
0.6
  11
-14.87434
  21
24.07667
  31
0.0
100
AcDbText
  73
      3
   0
TEXT
   5
21F
100
AcDbEntity
   8
MAIN
  62
      5
100
AcDbText
  10
2.4525
  20
24.07667
  30
0.0
  40
0.8
   1
2" Tubing Die
  41
0.6
  11
2.4525
  21
24.07667
  31
0.0
100
AcDbText
  73
      3
   0
TEXT
   5
220
100
AcDbEntity
   8
MAIN
  62
      5
100
AcDbText
  10
-18.23411
  20
10.825
  30
0.0
  40
0.8
   1
Combo Flat Bar / Round Bar Die
  41
0.6
  11
-18.23411
  21
10.825
  31
0.0
100
AcDbText
  73
      3
   0
TEXT
   5
221
100
AcDbEntity
   8
MAIN
  62
      5
100
AcDbText
  10
-2.65375
  20
9.66071
  30
0.0
  40
0.8
   1
Holes for Bearings and Bolts
  41
0.6
100
AcDbText
   0
TEXT
   5
222
100
AcDbEntity
   8
MAIN
  62
      5
100
AcDbText
  10
-2.65375
  20
8.51071
  30
0.0
  40
0.8
   1
  in all Dies
  41
0.6
100
AcDbText
   0
CIRCLE
   5
223
100
AcDbEntity
   8
MAIN
   6
CONTINUOUS
  62
      7
100
AcDbCircle
  10
0.06567
  20
4.07291
  30
0.0
  40
2.25
   0
CIRCLE
   5
224
100
AcDbEntity
   8
MAIN
   6
CONTINUOUS
  62
      7
100
AcDbCircle
  10
0.06567
  20
4.07291
  30
0.0
  40
1.0625
   0
CIRCLE
   5
225
100
AcDbEntity
   8
MAIN
   6
VECTORWORKS_DASH_03
  62
      5
100
AcDbCircle
  10
0.06567
  20
4.07291
  30
0.0
  40
1.4375
   0
CIRCLE
   5
226
100
AcDbEntity
   8
MAIN
   6
CONTINUOUS
  62
      7
100
AcDbCircle
  10
0.06567
  20
5.51041
  30
0.0
  40
0.21875
   0
INSERT
   5
227
100
AcDbEntity
   8
MAIN
100
AcDbBlockReference
   2
*G28
  10
12.59654
  20
16.75151
  30
0.0
   0
CIRCLE
   5
228
100
AcDbEntity
   8
MAIN
   6
CONTINUOUS
  62
      7
100
AcDbCircle
  10
1.50317
  20
4.07291
  30
0.0
  40
0.21875
   0
INSERT
   5
229
100
AcDbEntity
   8
MAIN
100
AcDbBlockReference
   2
*G29
  10
12.59654
  20
16.75151
  30
0.0
   0
CIRCLE
   5
22A
100
AcDbEntity
   8
MAIN
   6
CONTINUOUS
  62
      7
100
AcDbCircle
  10
0.06567
  20
2.63541
  30
0.0
  40
0.21875
   0
INSERT
   5
22B
100
AcDbEntity
   8
MAIN
100
AcDbBlockReference
   2
*G30
  10
12.59654
  20
16.75151
  30
0.0
   0
CIRCLE
   5
22C
100
AcDbEntity
   8
MAIN
   6
CONTINUOUS
  62
      7
100
AcDbCircle
  10
-1.37183
  20
4.07291
  30
0.0
  40
0.21875
   0
INSERT
   5
22D
100
AcDbEntity
   8
MAIN
100
AcDbBlockReference
   2
*G31
  10
12.59654
  20
16.75151
  30
0.0
   0
INSERT
   5
22E
100
AcDbEntity
   8
MAIN
100
AcDbBlockReference
   2
*G32
  10
12.59654
  20
16.75151
  30
0.0
   0
INSERT
   5
22F
100
AcDbEntity
   8
MAIN
100
AcDbBlockReference
   2
*G33
  10
12.59654
  20
16.75151
  30
0.0
   0
LWPOLYLINE
   5
230
100
AcDbEntity
   8
MAIN
   6
CONTINUOUS
  62
      7
100
AcDbPolyline
  90
         5
  70
    129
  10
-2.18433
  20
-0.12709
  10
2.31567
  20
-0.12709
  10
2.31567
  20
-0.37709
  10
-2.18433
  20
-0.37709
  10
-2.18433
  20
-0.12709
   0
LWPOLYLINE
   5
231
100
AcDbEntity
   8
MAIN
   6
VECTORWORKS_DASH_02
  62
      7
100
AcDbPolyline
  90
         5
  70
    129
  10
-0.99683
  20
-0.12709
  10
1.12817
  20
-0.12709
  10
1.12817
  20
-0.37709
  10
-0.99683
  20
-0.37709
  10
-0.99683
  20
-0.12709
   0
LWPOLYLINE
   5
232
100
AcDbEntity
   8
MAIN
   6
VECTORWORKS_DASH_02
  62
      7
100
AcDbPolyline
  90
         5
  70
    129
  10
-1.59058
  20
-0.12709
  10
-1.15308
  20
-0.12709
  10
-1.15308
  20
-0.37709
  10
-1.59058
  20
-0.37709
  10
-1.59058
  20
-0.12709
   0
LWPOLYLINE
   5
233
100
AcDbEntity
   8
MAIN
   6
VECTORWORKS_DASH_02
  62
      7
100
AcDbPolyline
  90
         5
  70
    129
  10
1.28442
  20
-0.12709
  10
1.72192
  20
-0.12709
  10
1.72192
  20
-0.37709
  10
1.28442
  20
-0.37709
  10
1.28442
  20
-0.12709
   0
LINE
   5
234
100
AcDbEntity
   8
MAIN
   6
VECTORWORKS_DASH_04
  62
      5
100
AcDbLine
  10
0.06567
  20
0.07291
  30
0.0
  11
0.06567
  21
-0.56709
  31
0.0
   0
LINE
   5
235
100
AcDbEntity
   8
MAIN
   6
VECTORWORKS_DASH_04
  62
      5
100
AcDbLine
  10
-1.37183
  20
0.07291
  30
0.0
  11
-1.37183
  21
-0.56709
  31
0.0
   0
LINE
   5
236
100
AcDbEntity
   8
MAIN
   6
VECTORWORKS_DASH_04
  62
      5
100
AcDbLine
  10
1.50317
  20
0.07291
  30
0.0
  11
1.50317
  21
-0.56709
  31
0.0
   0
LINE
   5
237
100
AcDbEntity
   8
MAIN
   6
CONTINUOUS
  62
      5
100
AcDbLine
  10
-2.30933
  20
-0.12709
  30
0.0
  11
-3.46433
  21
-0.12709
  31
0.0
   0
LINE
   5
238
100
AcDbEntity
   8
MAIN
   6
CONTINUOUS
  62
      5
100
AcDbLine
  10
-2.30933
  20
-0.37709
  30
0.0
  11
-3.46433
  21
-0.37709
  31
0.0
   0
LINE
   5
239
100
AcDbEntity
   8
MAIN
   6
CONTINUOUS
  62
      5
100
AcDbLine
  10
-3.21433
  20
-0.00209
  30
0.0
  11
-3.21433
  21
-0.12709
  31
0.0
   0
LINE
   5
23A
100
AcDbEntity
   8
MAIN
   6
CONTINUOUS
  62
      5
100
AcDbLine
  10
-3.21433
  20
-0.37709
  30
0.0
  11
-3.21433
  21
-0.50209
  31
0.0
   0
LINE
   5
23C
100
AcDbEntity
   8
MAIN
  62
      5
100
AcDbLine
  10
-3.12594
  20
-0.21548
  30
0.0
  11
-3.30272
  21
-0.0387
  31
0.0
   0
LINE
   5
23D
100
AcDbEntity
   8
MAIN
  62
      5
100
AcDbLine
  10
-3.30272
  20
-0.2887
  30
0.0
  11
-3.12594
  21
-0.46548
  31
0.0
   0
LINE
   5
23B
100
AcDbEntity
   8
MAIN
   6
CONTINUOUS
  62
      5
100
AcDbLine
  10
-3.21433
  20
-0.12709
  30
0.0
  11
-3.21433
  21
-0.37709
  31
0.0
   0
INSERT
   5
23E
100
AcDbEntity
   8
MAIN
100
AcDbBlockReference
   2
*G34
  10
12.59654
  20
16.75151
  30
0.0
   0
SOLID
   5
240
100
AcDbEntity
   8
MAIN
  62
      5
100
AcDbTrace
  10
1.0244
  20
3.61494
  30
0.0
  11
1.27846
  21
3.56555
  31
0.0
  12
1.21973
  22
3.44514
  32
0.0
  13
1.21973
  23
3.44514
  33
0.0
   0
LINE
   5
23F
100
AcDbEntity
   8
MAIN
   6
CONTINUOUS
  62
      5
100
AcDbLine
  10
1.0244
  20
3.61494
  30
0.0
  11
2.95461
  21
2.69291
  31
0.0
   0
LINE
   5
241
100
AcDbEntity
   8
MAIN
   6
CONTINUOUS
  62
      5
100
AcDbLine
  10
2.95461
  20
2.69291
  30
0.0
  11
3.45461
  21
2.69291
  31
0.0
   0
INSERT
   5
242
100
AcDbEntity
   8
MAIN
100
AcDbBlockReference
   2
*G35
  10
12.59654
  20
16.75151
  30
0.0
   0
SOLID
   5
244
100
AcDbEntity
   8
MAIN
  62
      5
100
AcDbTrace
  10
1.13416
  20
3.11128
  30
0.0
  11
1.36477
  21
2.99378
  31
0.0
  12
1.27512
  22
2.89422
  32
0.0
  13
1.27512
  23
2.89422
  33
0.0
   0
LINE
   5
243
100
AcDbEntity
   8
MAIN
   6
CONTINUOUS
  62
      5
100
AcDbLine
  10
1.13416
  20
3.11128
  30
0.0
  11
2.95461
  21
1.47291
  31
0.0
   0
LINE
   5
245
100
AcDbEntity
   8
MAIN
   6
CONTINUOUS
  62
      5
100
AcDbLine
  10
2.95461
  20
1.47291
  30
0.0
  11
3.45461
  21
1.47291
  31
0.0
   0
INSERT
   5
246
100
AcDbEntity
   8
MAIN
100
AcDbBlockReference
   2
*G36
  10
12.59654
  20
16.75151
  30
0.0
   0
SOLID
   5
248
100
AcDbEntity
   8
MAIN
  62
      5
100
AcDbTrace
  10
1.4838
  20
2.32608
  30
0.0
  11
1.69319
  21
2.17395
  31
0.0
  12
1.58907
  22
2.08964
  32
0.0
  13
1.58907
  23
2.08964
  33
0.0
   0
LINE
   5
247
100
AcDbEntity
   8
MAIN
   6
CONTINUOUS
  62
      5
100
AcDbLine
  10
1.4838
  20
2.32608
  30
0.0
  11
3.08567
  21
0.35291
  31
0.0
   0
LINE
   5
249
100
AcDbEntity
   8
MAIN
   6
CONTINUOUS
  62
      5
100
AcDbLine
  10
3.08567
  20
0.35291
  30
0.0
  11
3.58567
  21
0.35291
  31
0.0
   0
INSERT
   5
24A
100
AcDbEntity
   8
MAIN
100
AcDbBlockReference
   2
*G37
  10
12.59654
  20
16.75151
  30
0.0
   0
SOLID
   5
24C
100
AcDbEntity
   8
MAIN
  62
      5
100
AcDbTrace
  10
1.652
  20
4.23322
  30
0.0
  11
1.77351
  21
4.46174
  31
0.0
  12
1.87149
  22
4.37037
  32
0.0
  13
1.87149
  23
4.37037
  33
0.0
   0
LINE
   5
24B
100
AcDbEntity
   8
MAIN
   6
CONTINUOUS
  62
      5
100
AcDbLine
  10
1.652
  20
4.23322
  30
0.0
  11
3.28567
  21
5.9929
  31
0.0
   0
LINE
   5
24D
100
AcDbEntity
   8
MAIN
   6
CONTINUOUS
  62
      5
100
AcDbLine
  10
3.28567
  20
5.9929
  30
0.0
  11
3.78567
  21
5.9929
  31
0.0
   0
INSERT
   5
24E
100
AcDbEntity
   8
MAIN
100
AcDbBlockReference
   2
*G38
  10
12.59654
  20
16.75151
  30
0.0
   0
TEXT
   5
24F
100
AcDbEntity
   8
MAIN
  62
      5
100
AcDbText
  10
3.86567
  20
5.67291
  30
0.0
  40
0.53334
   1
4 holes
  41
0.6
  11
3.86567
  21
5.67291
  31
0.0
100
AcDbText
  73
      3
   0
TEXT
   5
250
100
AcDbEntity
   8
MAIN
  62
      5
100
AcDbText
  10
-2.76489
  20
-2.42853
  30
0.0
  40
0.8
   1
Stiffener Plates
  41
0.6
100
AcDbText
   0
TEXT
   5
251
100
AcDbEntity
   8
MAIN
  62
      5
100
AcDbText
  10
-2.76489
  20
-3.57853
  30
0.0
  40
0.8
   1
SAE Standard 2" Flat Washer
  41
0.6
100
AcDbText
   0
CIRCLE
   5
252
100
AcDbEntity
   8
MAIN
   6
CONTINUOUS
  62
      7
100
AcDbCircle
  10
18.97977
  20
8.90885
  30
0.0
  40
2.25
   0
CIRCLE
   5
253
100
AcDbEntity
   8
MAIN
   6
CONTINUOUS
  62
      7
100
AcDbCircle
  10
18.97977
  20
8.90885
  30
0.0
  40
1.0625
   0
CIRCLE
   5
254
100
AcDbEntity
   8
MAIN
   6
CONTINUOUS
  62
      7
100
AcDbCircle
  10
18.97977
  20
10.34635
  30
0.0
  40
0.21875
   0
INSERT
   5
255
100
AcDbEntity
   8
MAIN
100
AcDbBlockReference
   2
*G39
  10
12.59654
  20
16.75151
  30
0.0
   0
CIRCLE
   5
256
100
AcDbEntity
   8
MAIN
   6
CONTINUOUS
  62
      7
100
AcDbCircle
  10
20.41727
  20
8.90885
  30
0.0
  40
0.21875
   0
INSERT
   5
257
100
AcDbEntity
   8
MAIN
100
AcDbBlockReference
   2
*G40
  10
12.59654
  20
16.75151
  30
0.0
   0
CIRCLE
   5
258
100
AcDbEntity
   8
MAIN
   6
CONTINUOUS
  62
      7
100
AcDbCircle
  10
18.97977
  20
7.47135
  30
0.0
  40
0.21875
   0
INSERT
   5
259
100
AcDbEntity
   8
MAIN
100
AcDbBlockReference
   2
*G41
  10
12.59654
  20
16.75151
  30
0.0
   0
CIRCLE
   5
25A
100
AcDbEntity
   8
MAIN
   6
CONTINUOUS
  62
      7
100
AcDbCircle
  10
17.54227
  20
8.90885
  30
0.0
  40
0.21875
   0
INSERT
   5
25B
100
AcDbEntity
   8
MAIN
100
AcDbBlockReference
   2
*G42
  10
12.59654
  20
16.75151
  30
0.0
   0
INSERT
   5
25C
100
AcDbEntity
   8
MAIN
100
AcDbBlockReference
   2
*G43
  10
12.59654
  20
16.75151
  30
0.0
   0
INSERT
   5
25D
100
AcDbEntity
   8
MAIN
100
AcDbBlockReference
   2
*G44
  10
12.59654
  20
16.75151
  30
0.0
   0
LWPOLYLINE
   5
25E
100
AcDbEntity
   8
MAIN
   6
CONTINUOUS
  62
      7
100
AcDbPolyline
  90
         5
  70
    129
  10
17.70477
  20
9.90885
  10
35.70477
  20
9.90885
  10
35.70477
  20
7.90885
  10
17.70477
  20
7.90885
  10
17.70477
  20
9.90885
   0
CIRCLE
   5
25F
100
AcDbEntity
   8
MAIN
   6
CONTINUOUS
  62
      7
100
AcDbCircle
  10
34.85477
  20
8.90885
  30
0.0
  40
0.5
   0
CIRCLE
   5
260
100
AcDbEntity
   8
MAIN
   6
CONTINUOUS
  62
      7
100
AcDbCircle
  10
34.85477
  20
8.90885
  30
0.0
  40
0.4375
   0
CIRCLE
   5
261
100
AcDbEntity
   8
MAIN
   6
CONTINUOUS
  62
      7
100
AcDbCircle
  10
34.85477
  20
8.90885
  30
0.0
  40
0.375
   0
CIRCLE
   5
262
100
AcDbEntity
   8
MAIN
   6
CONTINUOUS
  62
      7
100
AcDbCircle
  10
34.85477
  20
8.90885
  30
0.0
  40
0.25
   0
CIRCLE
   5
263
100
AcDbEntity
   8
MAIN
   6
CONTINUOUS
  62
      7
100
AcDbCircle
  10
18.97977
  20
8.90885
  30
0.0
  40
1.0
   0
CIRCLE
   5
264
100
AcDbEntity
   8
MAIN
   6
CONTINUOUS
  62
      7
100
AcDbCircle
  10
18.97977
  20
8.90885
  30
0.0
  40
0.875
   0
INSERT
   5
265
100
AcDbEntity
   8
MAIN
100
AcDbBlockReference
   2
*G45
  10
12.59654
  20
16.75151
  30
0.0
   0
LWPOLYLINE
   5
266
100
AcDbEntity
   8
MAIN
   6
CONTINUOUS
  62
      7
100
AcDbPolyline
  90
         5
  70
    129
  10
34.47977
  20
33.37
  10
35.22977
  20
33.37
  10
35.22977
  20
23.60885
  10
34.47977
  20
23.60885
  10
34.47977
  20
33.37
   0
CIRCLE
   5
267
100
AcDbEntity
   8
MAIN
   6
CONTINUOUS
  62
      7
100
AcDbCircle
  10
40.90225
  20
22.38
  30
0.0
  40
0.5
   0
CIRCLE
   5
268
100
AcDbEntity
   8
MAIN
   6
CONTINUOUS
  62
      7
100
AcDbCircle
  10
40.90225
  20
22.38
  30
0.0
  40
0.4375
   0
SOLID
   5
26A
100
AcDbEntity
   8
MAIN
  62
      5
100
AcDbTrace
  10
41.32378
  20
22.11109
  30
0.0
  11
41.56993
  21
22.03111
  31
0.0
  12
41.49696
  22
21.91875
  32
0.0
  13
41.49696
  23
21.91875
  33
0.0
   0
LINE
   5
269
100
AcDbEntity
   8
MAIN
   6
CONTINUOUS
  62
      5
100
AcDbLine
  10
41.32378
  20
22.11109
  30
0.0
  11
42.06225
  21
21.64
  31
0.0
   0
LINE
   5
26B
100
AcDbEntity
   8
MAIN
   6
CONTINUOUS
  62
      5
100
AcDbLine
  10
42.06225
  20
21.64
  30
0.0
  11
42.56225
  21
21.64
  31
0.0
   0
INSERT
   5
26C
100
AcDbEntity
   8
MAIN
100
AcDbBlockReference
   2
*G46
  10
12.59654
  20
16.75151
  30
0.0
   0
SOLID
   5
26E
100
AcDbEntity
   8
MAIN
  62
      5
100
AcDbTrace
  10
41.26894
  20
22.61864
  30
0.0
  11
41.44212
  21
22.81098
  31
0.0
  12
41.51509
  22
22.69862
  32
0.0
  13
41.51509
  23
22.69862
  33
0.0
   0
LINE
   5
26D
100
AcDbEntity
   8
MAIN
   6
CONTINUOUS
  62
      5
100
AcDbLine
  10
41.26894
  20
22.61864
  30
0.0
  11
42.16225
  21
23.2
  31
0.0
   0
LINE
   5
26F
100
AcDbEntity
   8
MAIN
   6
CONTINUOUS
  62
      5
100
AcDbLine
  10
42.16225
  20
23.2
  30
0.0
  11
42.66225
  21
23.2
  31
0.0
   0
INSERT
   5
270
100
AcDbEntity
   8
MAIN
100
AcDbBlockReference
   2
*G47
  10
12.59654
  20
16.75151
  30
0.0
   0
LINE
   5
271
100
AcDbEntity
   8
MAIN
   6
CONTINUOUS
  62
      5
100
AcDbLine
  10
41.52725
  20
33.70885
  30
0.0
  11
42.992
  21
33.70885
  31
0.0
   0
LINE
   5
272
100
AcDbEntity
   8
MAIN
   6
CONTINUOUS
  62
      5
100
AcDbLine
  10
41.52725
  20
23.70885
  30
0.0
  11
42.992
  21
23.70885
  31
0.0
   0
LINE
   5
273
100
AcDbEntity
   8
MAIN
   6
CONTINUOUS
  62
      5
100
AcDbLine
  10
42.742
  20
33.83385
  30
0.0
  11
42.742
  21
33.70885
  31
0.0
   0
LINE
   5
274
100
AcDbEntity
   8
MAIN
   6
CONTINUOUS
  62
      5
100
AcDbLine
  10
42.742
  20
23.70885
  30
0.0
  11
42.742
  21
23.58385
  31
0.0
   0
LINE
   5
276
100
AcDbEntity
   8
MAIN
  62
      5
100
AcDbLine
  10
42.83039
  20
33.62046
  30
0.0
  11
42.65361
  21
33.79724
  31
0.0
   0
LINE
   5
277
100
AcDbEntity
   8
MAIN
  62
      5
100
AcDbLine
  10
42.65361
  20
23.79724
  30
0.0
  11
42.83039
  21
23.62046
  31
0.0
   0
LINE
   5
275
100
AcDbEntity
   8
MAIN
   6
CONTINUOUS
  62
      5
100
AcDbLine
  10
42.742
  20
33.70885
  30
0.0
  11
42.742
  21
23.70885
  31
0.0
   0
INSERT
   5
278
100
AcDbEntity
   8
MAIN
100
AcDbBlockReference
   2
*G48
  10
12.59654
  20
16.75151
  30
0.0
   0
POLYLINE
   5
279
100
AcDbEntity
   8
MAIN
   6
CONTINUOUS
  62
      7
100
AcDb2dPolyline
  66
      1
  10
0.0
  20
0.0
  30
0.0
  75
      5
   0
VERTEX
   5
27A
100
AcDbEntity
   8
MAIN
   6
CONTINUOUS
  62
      7
100
AcDbVertex
100
AcDb2dVertex
  10
35.10477
  20
34.29308
  30
0.0
   0
VERTEX
   5
27B
100
AcDbEntity
   8
MAIN
   6
CONTINUOUS
  62
      7
100
AcDbVertex
100
AcDb2dVertex
  10
35.00477
  20
34.37
  30
0.0
   0
VERTEX
   5
27C
100
AcDbEntity
   8
MAIN
   6
CONTINUOUS
  62
      7
100
AcDbVertex
100
AcDb2dVertex
  10
34.70477
  20
34.37
  30
0.0
   0
VERTEX
   5
27D
100
AcDbEntity
   8
MAIN
   6
CONTINUOUS
  62
      7
100
AcDbVertex
100
AcDb2dVertex
  10
34.63808
  20
34.31231
  30
0.0
   0
VERTEX
   5
27E
100
AcDbEntity
   8
MAIN
   6
CONTINUOUS
  62
      7
100
AcDbVertex
100
AcDb2dVertex
  10
34.67139
  20
34.29308
  30
0.0
   0
SEQEND
   5
27F
100
AcDbEntity
   8
MAIN
   6
CONTINUOUS
   0
POLYLINE
   5
280
100
AcDbEntity
   8
MAIN
   6
CONTINUOUS
  62
      7
100
AcDb2dPolyline
  66
      1
  10
0.0
  20
0.0
  30
0.0
  75
      5
   0
VERTEX
   5
281
100
AcDbEntity
   8
MAIN
   6
CONTINUOUS
  62
      7
100
AcDbVertex
100
AcDb2dVertex
  10
34.60477
  20
33.40846
  30
0.0
   0
VERTEX
   5
282
100
AcDbEntity
   8
MAIN
   6
CONTINUOUS
  62
      7
100
AcDbVertex
100
AcDb2dVertex
  10
34.67139
  20
33.37
  30
0.0
   0
VERTEX
   5
283
100
AcDbEntity
   8
MAIN
   6
CONTINUOUS
  62
      7
100
AcDbVertex
100
AcDb2dVertex
  10
35.03815
  20
33.37
  30
0.0
   0
VERTEX
   5
284
100
AcDbEntity
   8
MAIN
   6
CONTINUOUS
  62
      7
100
AcDbVertex
100
AcDb2dVertex
  10
35.07146
  20
33.38923
  30
0.0
   0
VERTEX
   5
285
100
AcDbEntity
   8
MAIN
   6
CONTINUOUS
  62
      7
100
AcDbVertex
100
AcDb2dVertex
  10
35.03815
  20
33.40846
  30
0.0
   0
SEQEND
   5
286
100
AcDbEntity
   8
MAIN
   6
CONTINUOUS
   0
POLYLINE
   5
287
100
AcDbEntity
   8
MAIN
   6
CONTINUOUS
  62
      7
100
AcDb2dPolyline
  66
      1
  10
0.0
  20
0.0
  30
0.0
  70
      1
  75
      5
   0
VERTEX
   5
288
100
AcDbEntity
   8
MAIN
   6
CONTINUOUS
  62
      7
100
AcDbVertex
100
AcDb2dVertex
  10
34.63808
  20
34.31231
  30
0.0
   0
VERTEX
   5
289
100
AcDbEntity
   8
MAIN
   6
CONTINUOUS
  62
      7
100
AcDbVertex
100
AcDb2dVertex
  10
34.85477
  20
34.31231
  30
0.0
   0
VERTEX
   5
28A
100
AcDbEntity
   8
MAIN
   6
CONTINUOUS
  62
      7
100
AcDbVertex
100
AcDb2dVertex
  10
34.67139
  20
34.29308
  30
0.0
   0
VERTEX
   5
28B
100
AcDbEntity
   8
MAIN
   6
CONTINUOUS
  62
      7
100
AcDbVertex
100
AcDb2dVertex
  10
34.63808
  20
34.31231
  30
0.0
   0
SEQEND
   5
28C
100
AcDbEntity
   8
MAIN
   6
CONTINUOUS
   0
POLYLINE
   5
28D
100
AcDbEntity
   8
MAIN
   6
CONTINUOUS
  62
      7
100
AcDb2dPolyline
  66
      1
  10
0.0
  20
0.0
  30
0.0
  75
      5
   0
VERTEX
   5
28E
100
AcDbEntity
   8
MAIN
   6
CONTINUOUS
  62
      7
100
AcDbVertex
100
AcDb2dVertex
  10
34.67139
  20
34.29308
  30
0.0
   0
VERTEX
   5
28F
100
AcDbEntity
   8
MAIN
   6
CONTINUOUS
  62
      7
100
AcDbVertex
100
AcDb2dVertex
  10
34.60477
  20
34.25462
  30
0.0
   0
VERTEX
   5
290
100
AcDbEntity
   8
MAIN
   6
CONTINUOUS
  62
      7
100
AcDbVertex
100
AcDb2dVertex
  10
35.10477
  20
34.29308
  30
0.0
   0
SEQEND
   5
291
100
AcDbEntity
   8
MAIN
   6
CONTINUOUS
   0
POLYLINE
   5
292
100
AcDbEntity
   8
MAIN
   6
CONTINUOUS
  62
      7
100
AcDb2dPolyline
  66
      1
  10
0.0
  20
0.0
  30
0.0
  70
      1
  75
      5
   0
VERTEX
   5
293
100
AcDbEntity
   8
MAIN
   6
CONTINUOUS
  62
      7
100
AcDbVertex
100
AcDb2dVertex
  10
35.10477
  20
34.29308
  30
0.0
   0
VERTEX
   5
294
100
AcDbEntity
   8
MAIN
   6
CONTINUOUS
  62
      7
100
AcDbVertex
100
AcDb2dVertex
  10
35.03815
  20
34.25462
  30
0.0
   0
VERTEX
   5
295
100
AcDbEntity
   8
MAIN
   6
CONTINUOUS
  62
      7
100
AcDbVertex
100
AcDb2dVertex
  10
34.67139
  20
34.21616
  30
0.0
   0
VERTEX
   5
296
100
AcDbEntity
   8
MAIN
   6
CONTINUOUS
  62
      7
100
AcDbVertex
100
AcDb2dVertex
  10
34.60477
  20
34.25462
  30
0.0
   0
SEQEND
   5
297
100
AcDbEntity
   8
MAIN
   6
CONTINUOUS
   0
POLYLINE
   5
298
100
AcDbEntity
   8
MAIN
   6
CONTINUOUS
  62
      7
100
AcDb2dPolyline
  66
      1
  10
0.0
  20
0.0
  30
0.0
  70
      1
  75
      5
   0
VERTEX
   5
299
100
AcDbEntity
   8
MAIN
   6
CONTINUOUS
  62
      7
100
AcDbVertex
100
AcDb2dVertex
  10
34.67139
  20
34.21616
  30
0.0
   0
VERTEX
   5
29A
100
AcDbEntity
   8
MAIN
   6
CONTINUOUS
  62
      7
100
AcDbVertex
100
AcDb2dVertex
  10
34.60477
  20
34.1777
  30
0.0
   0
VERTEX
   5
29B
100
AcDbEntity
   8
MAIN
   6
CONTINUOUS
  62
      7
100
AcDbVertex
100
AcDb2dVertex
  10
35.10477
  20
34.21616
  30
0.0
   0
VERTEX
   5
29C
100
AcDbEntity
   8
MAIN
   6
CONTINUOUS
  62
      7
100
AcDbVertex
100
AcDb2dVertex
  10
35.03815
  20
34.25462
  30
0.0
   0
SEQEND
   5
29D
100
AcDbEntity
   8
MAIN
   6
CONTINUOUS
   0
POLYLINE
   5
29E
100
AcDbEntity
   8
MAIN
   6
CONTINUOUS
  62
      7
100
AcDb2dPolyline
  66
      1
  10
0.0
  20
0.0
  30
0.0
  70
      1
  75
      5
   0
VERTEX
   5
29F
100
AcDbEntity
   8
MAIN
   6
CONTINUOUS
  62
      7
100
AcDbVertex
100
AcDb2dVertex
  10
35.10477
  20
34.21616
  30
0.0
   0
VERTEX
   5
2A0
100
AcDbEntity
   8
MAIN
   6
CONTINUOUS
  62
      7
100
AcDbVertex
100
AcDb2dVertex
  10
35.03815
  20
34.1777
  30
0.0
   0
VERTEX
   5
2A1
100
AcDbEntity
   8
MAIN
   6
CONTINUOUS
  62
      7
100
AcDbVertex
100
AcDb2dVertex
  10
34.67139
  20
34.13924
  30
0.0
   0
VERTEX
   5
2A2
100
AcDbEntity
   8
MAIN
   6
CONTINUOUS
  62
      7
100
AcDbVertex
100
AcDb2dVertex
  10
34.60477
  20
34.1777
  30
0.0
   0
SEQEND
   5
2A3
100
AcDbEntity
   8
MAIN
   6
CONTINUOUS
   0
POLYLINE
   5
2A4
100
AcDbEntity
   8
MAIN
   6
CONTINUOUS
  62
      7
100
AcDb2dPolyline
  66
      1
  10
0.0
  20
0.0
  30
0.0
  70
      1
  75
      5
   0
VERTEX
   5
2A5
100
AcDbEntity
   8
MAIN
   6
CONTINUOUS
  62
      7
100
AcDbVertex
100
AcDb2dVertex
  10
34.67139
  20
34.13924
  30
0.0
   0
VERTEX
   5
2A6
100
AcDbEntity
   8
MAIN
   6
CONTINUOUS
  62
      7
100
AcDbVertex
100
AcDb2dVertex
  10
34.60477
  20
34.10078
  30
0.0
   0
VERTEX
   5
2A7
100
AcDbEntity
   8
MAIN
   6
CONTINUOUS
  62
      7
100
AcDbVertex
100
AcDb2dVertex
  10
35.10477
  20
34.13924
  30
0.0
   0
VERTEX
   5
2A8
100
AcDbEntity
   8
MAIN
   6
CONTINUOUS
  62
      7
100
AcDbVertex
100
AcDb2dVertex
  10
35.03815
  20
34.1777
  30
0.0
   0
SEQEND
   5
2A9
100
AcDbEntity
   8
MAIN
   6
CONTINUOUS
   0
POLYLINE
   5
2AA
100
AcDbEntity
   8
MAIN
   6
CONTINUOUS
  62
      7
100
AcDb2dPolyline
  66
      1
  10
0.0
  20
0.0
  30
0.0
  70
      1
  75
      5
   0
VERTEX
   5
2AB
100
AcDbEntity
   8
MAIN
   6
CONTINUOUS
  62
      7
100
AcDbVertex
100
AcDb2dVertex
  10
35.10477
  20
34.13924
  30
0.0
   0
VERTEX
   5
2AC
100
AcDbEntity
   8
MAIN
   6
CONTINUOUS
  62
      7
100
AcDbVertex
100
AcDb2dVertex
  10
35.03815
  20
34.10078
  30
0.0
   0
VERTEX
   5
2AD
100
AcDbEntity
   8
MAIN
   6
CONTINUOUS
  62
      7
100
AcDbVertex
100
AcDb2dVertex
  10
34.67139
  20
34.06232
  30
0.0
   0
VERTEX
   5
2AE
100
AcDbEntity
   8
MAIN
   6
CONTINUOUS
  62
      7
100
AcDbVertex
100
AcDb2dVertex
  10
34.60477
  20
34.10078
  30
0.0
   0
SEQEND
   5
2AF
100
AcDbEntity
   8
MAIN
   6
CONTINUOUS
   0
POLYLINE
   5
2B0
100
AcDbEntity
   8
MAIN
   6
CONTINUOUS
  62
      7
100
AcDb2dPolyline
  66
      1
  10
0.0
  20
0.0
  30
0.0
  70
      1
  75
      5
   0
VERTEX
   5
2B1
100
AcDbEntity
   8
MAIN
   6
CONTINUOUS
  62
      7
100
AcDbVertex
100
AcDb2dVertex
  10
34.67139
  20
34.06232
  30
0.0
   0
VERTEX
   5
2B2
100
AcDbEntity
   8
MAIN
   6
CONTINUOUS
  62
      7
100
AcDbVertex
100
AcDb2dVertex
  10
34.60477
  20
34.02386
  30
0.0
   0
VERTEX
   5
2B3
100
AcDbEntity
   8
MAIN
   6
CONTINUOUS
  62
      7
100
AcDbVertex
100
AcDb2dVertex
  10
35.10477
  20
34.06232
  30
0.0
   0
VERTEX
   5
2B4
100
AcDbEntity
   8
MAIN
   6
CONTINUOUS
  62
      7
100
AcDbVertex
100
AcDb2dVertex
  10
35.03815
  20
34.10078
  30
0.0
   0
SEQEND
   5
2B5
100
AcDbEntity
   8
MAIN
   6
CONTINUOUS
   0
POLYLINE
   5
2B6
100
AcDbEntity
   8
MAIN
   6
CONTINUOUS
  62
      7
100
AcDb2dPolyline
  66
      1
  10
0.0
  20
0.0
  30
0.0
  70
      1
  75
      5
   0
VERTEX
   5
2B7
100
AcDbEntity
   8
MAIN
   6
CONTINUOUS
  62
      7
100
AcDbVertex
100
AcDb2dVertex
  10
35.10477
  20
34.06232
  30
0.0
   0
VERTEX
   5
2B8
100
AcDbEntity
   8
MAIN
   6
CONTINUOUS
  62
      7
100
AcDbVertex
100
AcDb2dVertex
  10
35.03815
  20
34.02386
  30
0.0
   0
VERTEX
   5
2B9
100
AcDbEntity
   8
MAIN
   6
CONTINUOUS
  62
      7
100
AcDbVertex
100
AcDb2dVertex
  10
34.67139
  20
33.9854
  30
0.0
   0
VERTEX
   5
2BA
100
AcDbEntity
   8
MAIN
   6
CONTINUOUS
  62
      7
100
AcDbVertex
100
AcDb2dVertex
  10
34.60477
  20
34.02386
  30
0.0
   0
SEQEND
   5
2BB
100
AcDbEntity
   8
MAIN
   6
CONTINUOUS
   0
POLYLINE
   5
2BC
100
AcDbEntity
   8
MAIN
   6
CONTINUOUS
  62
      7
100
AcDb2dPolyline
  66
      1
  10
0.0
  20
0.0
  30
0.0
  70
      1
  75
      5
   0
VERTEX
   5
2BD
100
AcDbEntity
   8
MAIN
   6
CONTINUOUS
  62
      7
100
AcDbVertex
100
AcDb2dVertex
  10
34.67139
  20
33.9854
  30
0.0
   0
VERTEX
   5
2BE
100
AcDbEntity
   8
MAIN
   6
CONTINUOUS
  62
      7
100
AcDbVertex
100
AcDb2dVertex
  10
34.60477
  20
33.94694
  30
0.0
   0
VERTEX
   5
2BF
100
AcDbEntity
   8
MAIN
   6
CONTINUOUS
  62
      7
100
AcDbVertex
100
AcDb2dVertex
  10
35.10477
  20
33.9854
  30
0.0
   0
VERTEX
   5
2C0
100
AcDbEntity
   8
MAIN
   6
CONTINUOUS
  62
      7
100
AcDbVertex
100
AcDb2dVertex
  10
35.03815
  20
34.02386
  30
0.0
   0
SEQEND
   5
2C1
100
AcDbEntity
   8
MAIN
   6
CONTINUOUS
   0
POLYLINE
   5
2C2
100
AcDbEntity
   8
MAIN
   6
CONTINUOUS
  62
      7
100
AcDb2dPolyline
  66
      1
  10
0.0
  20
0.0
  30
0.0
  70
      1
  75
      5
   0
VERTEX
   5
2C3
100
AcDbEntity
   8
MAIN
   6
CONTINUOUS
  62
      7
100
AcDbVertex
100
AcDb2dVertex
  10
35.10477
  20
33.9854
  30
0.0
   0
VERTEX
   5
2C4
100
AcDbEntity
   8
MAIN
   6
CONTINUOUS
  62
      7
100
AcDbVertex
100
AcDb2dVertex
  10
35.03815
  20
33.94694
  30
0.0
   0
VERTEX
   5
2C5
100
AcDbEntity
   8
MAIN
   6
CONTINUOUS
  62
      7
100
AcDbVertex
100
AcDb2dVertex
  10
34.67139
  20
33.90848
  30
0.0
   0
VERTEX
   5
2C6
100
AcDbEntity
   8
MAIN
   6
CONTINUOUS
  62
      7
100
AcDbVertex
100
AcDb2dVertex
  10
34.60477
  20
33.94694
  30
0.0
   0
SEQEND
   5
2C7
100
AcDbEntity
   8
MAIN
   6
CONTINUOUS
   0
POLYLINE
   5
2C8
100
AcDbEntity
   8
MAIN
   6
CONTINUOUS
  62
      7
100
AcDb2dPolyline
  66
      1
  10
0.0
  20
0.0
  30
0.0
  70
      1
  75
      5
   0
VERTEX
   5
2C9
100
AcDbEntity
   8
MAIN
   6
CONTINUOUS
  62
      7
100
AcDbVertex
100
AcDb2dVertex
  10
34.67139
  20
33.90848
  30
0.0
   0
VERTEX
   5
2CA
100
AcDbEntity
   8
MAIN
   6
CONTINUOUS
  62
      7
100
AcDbVertex
100
AcDb2dVertex
  10
34.60477
  20
33.87002
  30
0.0
   0
VERTEX
   5
2CB
100
AcDbEntity
   8
MAIN
   6
CONTINUOUS
  62
      7
100
AcDbVertex
100
AcDb2dVertex
  10
35.10477
  20
33.90848
  30
0.0
   0
VERTEX
   5
2CC
100
AcDbEntity
   8
MAIN
   6
CONTINUOUS
  62
      7
100
AcDbVertex
100
AcDb2dVertex
  10
35.03815
  20
33.94694
  30
0.0
   0
SEQEND
   5
2CD
100
AcDbEntity
   8
MAIN
   6
CONTINUOUS
   0
POLYLINE
   5
2CE
100
AcDbEntity
   8
MAIN
   6
CONTINUOUS
  62
      7
100
AcDb2dPolyline
  66
      1
  10
0.0
  20
0.0
  30
0.0
  70
      1
  75
      5
   0
VERTEX
   5
2CF
100
AcDbEntity
   8
MAIN
   6
CONTINUOUS
  62
      7
100
AcDbVertex
100
AcDb2dVertex
  10
35.10477
  20
33.90848
  30
0.0
   0
VERTEX
   5
2D0
100
AcDbEntity
   8
MAIN
   6
CONTINUOUS
  62
      7
100
AcDbVertex
100
AcDb2dVertex
  10
35.03815
  20
33.87002
  30
0.0
   0
VERTEX
   5
2D1
100
AcDbEntity
   8
MAIN
   6
CONTINUOUS
  62
      7
100
AcDbVertex
100
AcDb2dVertex
  10
34.67139
  20
33.83156
  30
0.0
   0
VERTEX
   5
2D2
100
AcDbEntity
   8
MAIN
   6
CONTINUOUS
  62
      7
100
AcDbVertex
100
AcDb2dVertex
  10
34.60477
  20
33.87002
  30
0.0
   0
SEQEND
   5
2D3
100
AcDbEntity
   8
MAIN
   6
CONTINUOUS
   0
POLYLINE
   5
2D4
100
AcDbEntity
   8
MAIN
   6
CONTINUOUS
  62
      7
100
AcDb2dPolyline
  66
      1
  10
0.0
  20
0.0
  30
0.0
  70
      1
  75
      5
   0
VERTEX
   5
2D5
100
AcDbEntity
   8
MAIN
   6
CONTINUOUS
  62
      7
100
AcDbVertex
100
AcDb2dVertex
  10
34.67139
  20
33.83156
  30
0.0
   0
VERTEX
   5
2D6
100
AcDbEntity
   8
MAIN
   6
CONTINUOUS
  62
      7
100
AcDbVertex
100
AcDb2dVertex
  10
34.60477
  20
33.7931
  30
0.0
   0
VERTEX
   5
2D7
100
AcDbEntity
   8
MAIN
   6
CONTINUOUS
  62
      7
100
AcDbVertex
100
AcDb2dVertex
  10
35.10477
  20
33.83156
  30
0.0
   0
VERTEX
   5
2D8
100
AcDbEntity
   8
MAIN
   6
CONTINUOUS
  62
      7
100
AcDbVertex
100
AcDb2dVertex
  10
35.03815
  20
33.87002
  30
0.0
   0
SEQEND
   5
2D9
100
AcDbEntity
   8
MAIN
   6
CONTINUOUS
   0
POLYLINE
   5
2DA
100
AcDbEntity
   8
MAIN
   6
CONTINUOUS
  62
      7
100
AcDb2dPolyline
  66
      1
  10
0.0
  20
0.0
  30
0.0
  70
      1
  75
      5
   0
VERTEX
   5
2DB
100
AcDbEntity
   8
MAIN
   6
CONTINUOUS
  62
      7
100
AcDbVertex
100
AcDb2dVertex
  10
35.10477
  20
33.83156
  30
0.0
   0
VERTEX
   5
2DC
100
AcDbEntity
   8
MAIN
   6
CONTINUOUS
  62
      7
100
AcDbVertex
100
AcDb2dVertex
  10
35.03815
  20
33.7931
  30
0.0
   0
VERTEX
   5
2DD
100
AcDbEntity
   8
MAIN
   6
CONTINUOUS
  62
      7
100
AcDbVertex
100
AcDb2dVertex
  10
34.67139
  20
33.75464
  30
0.0
   0
VERTEX
   5
2DE
100
AcDbEntity
   8
MAIN
   6
CONTINUOUS
  62
      7
100
AcDbVertex
100
AcDb2dVertex
  10
34.60477
  20
33.7931
  30
0.0
   0
SEQEND
   5
2DF
100
AcDbEntity
   8
MAIN
   6
CONTINUOUS
   0
POLYLINE
   5
2E0
100
AcDbEntity
   8
MAIN
   6
CONTINUOUS
  62
      7
100
AcDb2dPolyline
  66
      1
  10
0.0
  20
0.0
  30
0.0
  70
      1
  75
      5
   0
VERTEX
   5
2E1
100
AcDbEntity
   8
MAIN
   6
CONTINUOUS
  62
      7
100
AcDbVertex
100
AcDb2dVertex
  10
34.67139
  20
33.75464
  30
0.0
   0
VERTEX
   5
2E2
100
AcDbEntity
   8
MAIN
   6
CONTINUOUS
  62
      7
100
AcDbVertex
100
AcDb2dVertex
  10
34.60477
  20
33.71618
  30
0.0
   0
VERTEX
   5
2E3
100
AcDbEntity
   8
MAIN
   6
CONTINUOUS
  62
      7
100
AcDbVertex
100
AcDb2dVertex
  10
35.10477
  20
33.75464
  30
0.0
   0
VERTEX
   5
2E4
100
AcDbEntity
   8
MAIN
   6
CONTINUOUS
  62
      7
100
AcDbVertex
100
AcDb2dVertex
  10
35.03815
  20
33.7931
  30
0.0
   0
SEQEND
   5
2E5
100
AcDbEntity
   8
MAIN
   6
CONTINUOUS
   0
POLYLINE
   5
2E6
100
AcDbEntity
   8
MAIN
   6
CONTINUOUS
  62
      7
100
AcDb2dPolyline
  66
      1
  10
0.0
  20
0.0
  30
0.0
  70
      1
  75
      5
   0
VERTEX
   5
2E7
100
AcDbEntity
   8
MAIN
   6
CONTINUOUS
  62
      7
100
AcDbVertex
100
AcDb2dVertex
  10
35.10477
  20
33.75464
  30
0.0
   0
VERTEX
   5
2E8
100
AcDbEntity
   8
MAIN
   6
CONTINUOUS
  62
      7
100
AcDbVertex
100
AcDb2dVertex
  10
35.03815
  20
33.71618
  30
0.0
   0
VERTEX
   5
2E9
100
AcDbEntity
   8
MAIN
   6
CONTINUOUS
  62
      7
100
AcDbVertex
100
AcDb2dVertex
  10
34.67139
  20
33.67772
  30
0.0
   0
VERTEX
   5
2EA
100
AcDbEntity
   8
MAIN
   6
CONTINUOUS
  62
      7
100
AcDbVertex
100
AcDb2dVertex
  10
34.60477
  20
33.71618
  30
0.0
   0
SEQEND
   5
2EB
100
AcDbEntity
   8
MAIN
   6
CONTINUOUS
   0
POLYLINE
   5
2EC
100
AcDbEntity
   8
MAIN
   6
CONTINUOUS
  62
      7
100
AcDb2dPolyline
  66
      1
  10
0.0
  20
0.0
  30
0.0
  70
      1
  75
      5
   0
VERTEX
   5
2ED
100
AcDbEntity
   8
MAIN
   6
CONTINUOUS
  62
      7
100
AcDbVertex
100
AcDb2dVertex
  10
34.67139
  20
33.67772
  30
0.0
   0
VERTEX
   5
2EE
100
AcDbEntity
   8
MAIN
   6
CONTINUOUS
  62
      7
100
AcDbVertex
100
AcDb2dVertex
  10
34.60477
  20
33.63926
  30
0.0
   0
VERTEX
   5
2EF
100
AcDbEntity
   8
MAIN
   6
CONTINUOUS
  62
      7
100
AcDbVertex
100
AcDb2dVertex
  10
35.10477
  20
33.67772
  30
0.0
   0
VERTEX
   5
2F0
100
AcDbEntity
   8
MAIN
   6
CONTINUOUS
  62
      7
100
AcDbVertex
100
AcDb2dVertex
  10
35.03815
  20
33.71618
  30
0.0
   0
SEQEND
   5
2F1
100
AcDbEntity
   8
MAIN
   6
CONTINUOUS
   0
POLYLINE
   5
2F2
100
AcDbEntity
   8
MAIN
   6
CONTINUOUS
  62
      7
100
AcDb2dPolyline
  66
      1
  10
0.0
  20
0.0
  30
0.0
  70
      1
  75
      5
   0
VERTEX
   5
2F3
100
AcDbEntity
   8
MAIN
   6
CONTINUOUS
  62
      7
100
AcDbVertex
100
AcDb2dVertex
  10
35.10477
  20
33.67772
  30
0.0
   0
VERTEX
   5
2F4
100
AcDbEntity
   8
MAIN
   6
CONTINUOUS
  62
      7
100
AcDbVertex
100
AcDb2dVertex
  10
35.03815
  20
33.63926
  30
0.0
   0
VERTEX
   5
2F5
100
AcDbEntity
   8
MAIN
   6
CONTINUOUS
  62
      7
100
AcDbVertex
100
AcDb2dVertex
  10
34.67139
  20
33.6008
  30
0.0
   0
VERTEX
   5
2F6
100
AcDbEntity
   8
MAIN
   6
CONTINUOUS
  62
      7
100
AcDbVertex
100
AcDb2dVertex
  10
34.60477
  20
33.63926
  30
0.0
   0
SEQEND
   5
2F7
100
AcDbEntity
   8
MAIN
   6
CONTINUOUS
   0
POLYLINE
   5
2F8
100
AcDbEntity
   8
MAIN
   6
CONTINUOUS
  62
      7
100
AcDb2dPolyline
  66
      1
  10
0.0
  20
0.0
  30
0.0
  70
      1
  75
      5
   0
VERTEX
   5
2F9
100
AcDbEntity
   8
MAIN
   6
CONTINUOUS
  62
      7
100
AcDbVertex
100
AcDb2dVertex
  10
34.67139
  20
33.6008
  30
0.0
   0
VERTEX
   5
2FA
100
AcDbEntity
   8
MAIN
   6
CONTINUOUS
  62
      7
100
AcDbVertex
100
AcDb2dVertex
  10
34.60477
  20
33.56234
  30
0.0
   0
VERTEX
   5
2FB
100
AcDbEntity
   8
MAIN
   6
CONTINUOUS
  62
      7
100
AcDbVertex
100
AcDb2dVertex
  10
35.10477
  20
33.6008
  30
0.0
   0
VERTEX
   5
2FC
100
AcDbEntity
   8
MAIN
   6
CONTINUOUS
  62
      7
100
AcDbVertex
100
AcDb2dVertex
  10
35.03815
  20
33.63926
  30
0.0
   0
SEQEND
   5
2FD
100
AcDbEntity
   8
MAIN
   6
CONTINUOUS
   0
POLYLINE
   5
2FE
100
AcDbEntity
   8
MAIN
   6
CONTINUOUS
  62
      7
100
AcDb2dPolyline
  66
      1
  10
0.0
  20
0.0
  30
0.0
  70
      1
  75
      5
   0
VERTEX
   5
2FF
100
AcDbEntity
   8
MAIN
   6
CONTINUOUS
  62
      7
100
AcDbVertex
100
AcDb2dVertex
  10
35.10477
  20
33.6008
  30
0.0
   0
VERTEX
   5
300
100
AcDbEntity
   8
MAIN
   6
CONTINUOUS
  62
      7
100
AcDbVertex
100
AcDb2dVertex
  10
35.03815
  20
33.56234
  30
0.0
   0
VERTEX
   5
301
100
AcDbEntity
   8
MAIN
   6
CONTINUOUS
  62
      7
100
AcDbVertex
100
AcDb2dVertex
  10
34.67139
  20
33.52388
  30
0.0
   0
VERTEX
   5
302
100
AcDbEntity
   8
MAIN
   6
CONTINUOUS
  62
      7
100
AcDbVertex
100
AcDb2dVertex
  10
34.60477
  20
33.56234
  30
0.0
   0
SEQEND
   5
303
100
AcDbEntity
   8
MAIN
   6
CONTINUOUS
   0
POLYLINE
   5
304
100
AcDbEntity
   8
MAIN
   6
CONTINUOUS
  62
      7
100
AcDb2dPolyline
  66
      1
  10
0.0
  20
0.0
  30
0.0
  70
      1
  75
      5
   0
VERTEX
   5
305
100
AcDbEntity
   8
MAIN
   6
CONTINUOUS
  62
      7
100
AcDbVertex
100
AcDb2dVertex
  10
34.67139
  20
33.52388
  30
0.0
   0
VERTEX
   5
306
100
AcDbEntity
   8
MAIN
   6
CONTINUOUS
  62
      7
100
AcDbVertex
100
AcDb2dVertex
  10
34.60477
  20
33.48542
  30
0.0
   0
VERTEX
   5
307
100
AcDbEntity
   8
MAIN
   6
CONTINUOUS
  62
      7
100
AcDbVertex
100
AcDb2dVertex
  10
35.10477
  20
33.52388
  30
0.0
   0
VERTEX
   5
308
100
AcDbEntity
   8
MAIN
   6
CONTINUOUS
  62
      7
100
AcDbVertex
100
AcDb2dVertex
  10
35.03815
  20
33.56234
  30
0.0
   0
SEQEND
   5
309
100
AcDbEntity
   8
MAIN
   6
CONTINUOUS
   0
POLYLINE
   5
30A
100
AcDbEntity
   8
MAIN
   6
CONTINUOUS
  62
      7
100
AcDb2dPolyline
  66
      1
  10
0.0
  20
0.0
  30
0.0
  70
      1
  75
      5
   0
VERTEX
   5
30B
100
AcDbEntity
   8
MAIN
   6
CONTINUOUS
  62
      7
100
AcDbVertex
100
AcDb2dVertex
  10
35.10477
  20
33.52388
  30
0.0
   0
VERTEX
   5
30C
100
AcDbEntity
   8
MAIN
   6
CONTINUOUS
  62
      7
100
AcDbVertex
100
AcDb2dVertex
  10
35.03815
  20
33.48542
  30
0.0
   0
VERTEX
   5
30D
100
AcDbEntity
   8
MAIN
   6
CONTINUOUS
  62
      7
100
AcDbVertex
100
AcDb2dVertex
  10
34.67139
  20
33.44696
  30
0.0
   0
VERTEX
   5
30E
100
AcDbEntity
   8
MAIN
   6
CONTINUOUS
  62
      7
100
AcDbVertex
100
AcDb2dVertex
  10
34.60477
  20
33.48542
  30
0.0
   0
SEQEND
   5
30F
100
AcDbEntity
   8
MAIN
   6
CONTINUOUS
   0
POLYLINE
   5
310
100
AcDbEntity
   8
MAIN
   6
CONTINUOUS
  62
      7
100
AcDb2dPolyline
  66
      1
  10
0.0
  20
0.0
  30
0.0
  70
      1
  75
      5
   0
VERTEX
   5
311
100
AcDbEntity
   8
MAIN
   6
CONTINUOUS
  62
      7
100
AcDbVertex
100
AcDb2dVertex
  10
34.67139
  20
33.44696
  30
0.0
   0
VERTEX
   5
312
100
AcDbEntity
   8
MAIN
   6
CONTINUOUS
  62
      7
100
AcDbVertex
100
AcDb2dVertex
  10
34.60477
  20
33.4085
  30
0.0
   0
VERTEX
   5
313
100
AcDbEntity
   8
MAIN
   6
CONTINUOUS
  62
      7
100
AcDbVertex
100
AcDb2dVertex
  10
35.10477
  20
33.44696
  30
0.0
   0
VERTEX
   5
314
100
AcDbEntity
   8
MAIN
   6
CONTINUOUS
  62
      7
100
AcDbVertex
100
AcDb2dVertex
  10
35.03815
  20
33.48542
  30
0.0
   0
SEQEND
   5
315
100
AcDbEntity
   8
MAIN
   6
CONTINUOUS
   0
POLYLINE
   5
316
100
AcDbEntity
   8
MAIN
   6
CONTINUOUS
  62
      7
100
AcDb2dPolyline
  66
      1
  10
0.0
  20
0.0
  30
0.0
  75
      5
   0
VERTEX
   5
317
100
AcDbEntity
   8
MAIN
   6
CONTINUOUS
  62
      7
100
AcDbVertex
100
AcDb2dVertex
  10
34.60477
  20
33.4085
  30
0.0
   0
VERTEX
   5
318
100
AcDbEntity
   8
MAIN
   6
CONTINUOUS
  62
      7
100
AcDbVertex
100
AcDb2dVertex
  10
35.10477
  20
33.44696
  30
0.0
   0
VERTEX
   5
319
100
AcDbEntity
   8
MAIN
   6
CONTINUOUS
  62
      7
100
AcDbVertex
100
AcDb2dVertex
  10
35.03815
  20
33.4085
  30
0.0
   0
SEQEND
   5
31A
100
AcDbEntity
   8
MAIN
   6
CONTINUOUS
   0
POLYLINE
   5
31B
100
AcDbEntity
   8
MAIN
   6
CONTINUOUS
  62
      7
100
AcDb2dPolyline
  66
      1
  10
0.0
  20
0.0
  30
0.0
  70
      1
  75
      5
   0
VERTEX
   5
31C
100
AcDbEntity
   8
MAIN
   6
CONTINUOUS
  62
      7
100
AcDbVertex
100
AcDb2dVertex
  10
35.03815
  20
33.4085
  30
0.0
   0
VERTEX
   5
31D
100
AcDbEntity
   8
MAIN
   6
CONTINUOUS
  62
      7
100
AcDbVertex
100
AcDb2dVertex
  10
35.07146
  20
33.38927
  30
0.0
   0
VERTEX
   5
31E
100
AcDbEntity
   8
MAIN
   6
CONTINUOUS
  62
      7
100
AcDbVertex
100
AcDb2dVertex
  10
34.85477
  20
33.38927
  30
0.0
   0
VERTEX
   5
31F
100
AcDbEntity
   8
MAIN
   6
CONTINUOUS
  62
      7
100
AcDbVertex
100
AcDb2dVertex
  10
35.03815
  20
33.4085
  30
0.0
   0
SEQEND
   5
320
100
AcDbEntity
   8
MAIN
   6
CONTINUOUS
   0
LWPOLYLINE
   5
321
100
AcDbEntity
   8
MAIN
   6
VECTORWORKS_DASH_02
  62
      7
100
AcDbPolyline
  90
         5
  70
    129
  10
34.60838
  20
33.37
  10
35.10838
  20
33.37
  10
35.10838
  20
23.60885
  10
34.60838
  20
23.60885
  10
34.60838
  20
33.37
   0
POLYLINE
   5
322
100
AcDbEntity
   8
MAIN
   6
VECTORWORKS_DASH_02
  62
      7
100
AcDb2dPolyline
  66
      1
  10
0.0
  20
0.0
  30
0.0
  75
      5
   0
VERTEX
   5
323
100
AcDbEntity
   8
MAIN
   6
VECTORWORKS_DASH_02
  62
      7
100
AcDbVertex
100
AcDb2dVertex
  10
34.60477
  20
32.44692
  30
0.0
   0
VERTEX
   5
324
100
AcDbEntity
   8
MAIN
   6
VECTORWORKS_DASH_02
  62
      7
100
AcDbVertex
100
AcDb2dVertex
  10
34.70477
  20
32.37
  30
0.0
   0
VERTEX
   5
325
100
AcDbEntity
   8
MAIN
   6
VECTORWORKS_DASH_02
  62
      7
100
AcDbVertex
100
AcDb2dVertex
  10
35.00477
  20
32.37
  30
0.0
   0
VERTEX
   5
326
100
AcDbEntity
   8
MAIN
   6
VECTORWORKS_DASH_02
  62
      7
100
AcDbVertex
100
AcDb2dVertex
  10
35.07146
  20
32.42769
  30
0.0
   0
VERTEX
   5
327
100
AcDbEntity
   8
MAIN
   6
VECTORWORKS_DASH_02
  62
      7
100
AcDbVertex
100
AcDb2dVertex
  10
35.03815
  20
32.44692
  30
0.0
   0
SEQEND
   5
328
100
AcDbEntity
   8
MAIN
   6
VECTORWORKS_DASH_02
   0
POLYLINE
   5
329
100
AcDbEntity
   8
MAIN
   6
VECTORWORKS_DASH_02
  62
      7
100
AcDb2dPolyline
  66
      1
  10
0.0
  20
0.0
  30
0.0
  75
      5
   0
VERTEX
   5
32A
100
AcDbEntity
   8
MAIN
   6
VECTORWORKS_DASH_02
  62
      7
100
AcDbVertex
100
AcDb2dVertex
  10
35.10477
  20
33.33154
  30
0.0
   0
VERTEX
   5
32B
100
AcDbEntity
   8
MAIN
   6
VECTORWORKS_DASH_02
  62
      7
100
AcDbVertex
100
AcDb2dVertex
  10
35.03815
  20
33.37
  30
0.0
   0
VERTEX
   5
32C
100
AcDbEntity
   8
MAIN
   6
VECTORWORKS_DASH_02
  62
      7
100
AcDbVertex
100
AcDb2dVertex
  10
34.67139
  20
33.37
  30
0.0
   0
VERTEX
   5
32D
100
AcDbEntity
   8
MAIN
   6
VECTORWORKS_DASH_02
  62
      7
100
AcDbVertex
100
AcDb2dVertex
  10
34.63808
  20
33.35077
  30
0.0
   0
VERTEX
   5
32E
100
AcDbEntity
   8
MAIN
   6
VECTORWORKS_DASH_02
  62
      7
100
AcDbVertex
100
AcDb2dVertex
  10
34.67139
  20
33.33154
  30
0.0
   0
SEQEND
   5
32F
100
AcDbEntity
   8
MAIN
   6
VECTORWORKS_DASH_02
   0
POLYLINE
   5
330
100
AcDbEntity
   8
MAIN
   6
VECTORWORKS_DASH_02
  62
      7
100
AcDb2dPolyline
  66
      1
  10
0.0
  20
0.0
  30
0.0
  70
      1
  75
      5
   0
VERTEX
   5
331
100
AcDbEntity
   8
MAIN
   6
VECTORWORKS_DASH_02
  62
      7
100
AcDbVertex
100
AcDb2dVertex
  10
35.07146
  20
32.42769
  30
0.0
   0
VERTEX
   5
332
100
AcDbEntity
   8
MAIN
   6
VECTORWORKS_DASH_02
  62
      7
100
AcDbVertex
100
AcDb2dVertex
  10
34.85477
  20
32.42769
  30
0.0
   0
VERTEX
   5
333
100
AcDbEntity
   8
MAIN
   6
VECTORWORKS_DASH_02
  62
      7
100
AcDbVertex
100
AcDb2dVertex
  10
35.03815
  20
32.44692
  30
0.0
   0
VERTEX
   5
334
100
AcDbEntity
   8
MAIN
   6
VECTORWORKS_DASH_02
  62
      7
100
AcDbVertex
100
AcDb2dVertex
  10
35.07146
  20
32.42769
  30
0.0
   0
SEQEND
   5
335
100
AcDbEntity
   8
MAIN
   6
VECTORWORKS_DASH_02
   0
POLYLINE
   5
336
100
AcDbEntity
   8
MAIN
   6
VECTORWORKS_DASH_02
  62
      7
100
AcDb2dPolyline
  66
      1
  10
0.0
  20
0.0
  30
0.0
  75
      5
   0
VERTEX
   5
337
100
AcDbEntity
   8
MAIN
   6
VECTORWORKS_DASH_02
  62
      7
100
AcDbVertex
100
AcDb2dVertex
  10
35.03815
  20
32.44692
  30
0.0
   0
VERTEX
   5
338
100
AcDbEntity
   8
MAIN
   6
VECTORWORKS_DASH_02
  62
      7
100
AcDbVertex
100
AcDb2dVertex
  10
35.10477
  20
32.48538
  30
0.0
   0
VERTEX
   5
339
100
AcDbEntity
   8
MAIN
   6
VECTORWORKS_DASH_02
  62
      7
100
AcDbVertex
100
AcDb2dVertex
  10
34.60477
  20
32.44692
  30
0.0
   0
SEQEND
   5
33A
100
AcDbEntity
   8
MAIN
   6
VECTORWORKS_DASH_02
   0
POLYLINE
   5
33B
100
AcDbEntity
   8
MAIN
   6
VECTORWORKS_DASH_02
  62
      7
100
AcDb2dPolyline
  66
      1
  10
0.0
  20
0.0
  30
0.0
  70
      1
  75
      5
   0
VERTEX
   5
33C
100
AcDbEntity
   8
MAIN
   6
VECTORWORKS_DASH_02
  62
      7
100
AcDbVertex
100
AcDb2dVertex
  10
34.60477
  20
32.44692
  30
0.0
   0
VERTEX
   5
33D
100
AcDbEntity
   8
MAIN
   6
VECTORWORKS_DASH_02
  62
      7
100
AcDbVertex
100
AcDb2dVertex
  10
34.67139
  20
32.48538
  30
0.0
   0
VERTEX
   5
33E
100
AcDbEntity
   8
MAIN
   6
VECTORWORKS_DASH_02
  62
      7
100
AcDbVertex
100
AcDb2dVertex
  10
35.03815
  20
32.52384
  30
0.0
   0
VERTEX
   5
33F
100
AcDbEntity
   8
MAIN
   6
VECTORWORKS_DASH_02
  62
      7
100
AcDbVertex
100
AcDb2dVertex
  10
35.10477
  20
32.48538
  30
0.0
   0
SEQEND
   5
340
100
AcDbEntity
   8
MAIN
   6
VECTORWORKS_DASH_02
   0
POLYLINE
   5
341
100
AcDbEntity
   8
MAIN
   6
VECTORWORKS_DASH_02
  62
      7
100
AcDb2dPolyline
  66
      1
  10
0.0
  20
0.0
  30
0.0
  70
      1
  75
      5
   0
VERTEX
   5
342
100
AcDbEntity
   8
MAIN
   6
VECTORWORKS_DASH_02
  62
      7
100
AcDbVertex
100
AcDb2dVertex
  10
35.03815
  20
32.52384
  30
0.0
   0
VERTEX
   5
343
100
AcDbEntity
   8
MAIN
   6
VECTORWORKS_DASH_02
  62
      7
100
AcDbVertex
100
AcDb2dVertex
  10
35.10477
  20
32.5623
  30
0.0
   0
VERTEX
   5
344
100
AcDbEntity
   8
MAIN
   6
VECTORWORKS_DASH_02
  62
      7
100
AcDbVertex
100
AcDb2dVertex
  10
34.60477
  20
32.52384
  30
0.0
   0
VERTEX
   5
345
100
AcDbEntity
   8
MAIN
   6
VECTORWORKS_DASH_02
  62
      7
100
AcDbVertex
100
AcDb2dVertex
  10
34.67139
  20
32.48538
  30
0.0
   0
SEQEND
   5
346
100
AcDbEntity
   8
MAIN
   6
VECTORWORKS_DASH_02
   0
POLYLINE
   5
347
100
AcDbEntity
   8
MAIN
   6
VECTORWORKS_DASH_02
  62
      7
100
AcDb2dPolyline
  66
      1
  10
0.0
  20
0.0
  30
0.0
  70
      1
  75
      5
   0
VERTEX
   5
348
100
AcDbEntity
   8
MAIN
   6
VECTORWORKS_DASH_02
  62
      7
100
AcDbVertex
100
AcDb2dVertex
  10
34.60477
  20
32.52384
  30
0.0
   0
VERTEX
   5
349
100
AcDbEntity
   8
MAIN
   6
VECTORWORKS_DASH_02
  62
      7
100
AcDbVertex
100
AcDb2dVertex
  10
34.67139
  20
32.5623
  30
0.0
   0
VERTEX
   5
34A
100
AcDbEntity
   8
MAIN
   6
VECTORWORKS_DASH_02
  62
      7
100
AcDbVertex
100
AcDb2dVertex
  10
35.03815
  20
32.60076
  30
0.0
   0
VERTEX
   5
34B
100
AcDbEntity
   8
MAIN
   6
VECTORWORKS_DASH_02
  62
      7
100
AcDbVertex
100
AcDb2dVertex
  10
35.10477
  20
32.5623
  30
0.0
   0
SEQEND
   5
34C
100
AcDbEntity
   8
MAIN
   6
VECTORWORKS_DASH_02
   0
POLYLINE
   5
34D
100
AcDbEntity
   8
MAIN
   6
VECTORWORKS_DASH_02
  62
      7
100
AcDb2dPolyline
  66
      1
  10
0.0
  20
0.0
  30
0.0
  70
      1
  75
      5
   0
VERTEX
   5
34E
100
AcDbEntity
   8
MAIN
   6
VECTORWORKS_DASH_02
  62
      7
100
AcDbVertex
100
AcDb2dVertex
  10
35.03815
  20
32.60076
  30
0.0
   0
VERTEX
   5
34F
100
AcDbEntity
   8
MAIN
   6
VECTORWORKS_DASH_02
  62
      7
100
AcDbVertex
100
AcDb2dVertex
  10
35.10477
  20
32.63922
  30
0.0
   0
VERTEX
   5
350
100
AcDbEntity
   8
MAIN
   6
VECTORWORKS_DASH_02
  62
      7
100
AcDbVertex
100
AcDb2dVertex
  10
34.60477
  20
32.60076
  30
0.0
   0
VERTEX
   5
351
100
AcDbEntity
   8
MAIN
   6
VECTORWORKS_DASH_02
  62
      7
100
AcDbVertex
100
AcDb2dVertex
  10
34.67139
  20
32.5623
  30
0.0
   0
SEQEND
   5
352
100
AcDbEntity
   8
MAIN
   6
VECTORWORKS_DASH_02
   0
POLYLINE
   5
353
100
AcDbEntity
   8
MAIN
   6
VECTORWORKS_DASH_02
  62
      7
100
AcDb2dPolyline
  66
      1
  10
0.0
  20
0.0
  30
0.0
  70
      1
  75
      5
   0
VERTEX
   5
354
100
AcDbEntity
   8
MAIN
   6
VECTORWORKS_DASH_02
  62
      7
100
AcDbVertex
100
AcDb2dVertex
  10
34.60477
  20
32.60076
  30
0.0
   0
VERTEX
   5
355
100
AcDbEntity
   8
MAIN
   6
VECTORWORKS_DASH_02
  62
      7
100
AcDbVertex
100
AcDb2dVertex
  10
34.67139
  20
32.63922
  30
0.0
   0
VERTEX
   5
356
100
AcDbEntity
   8
MAIN
   6
VECTORWORKS_DASH_02
  62
      7
100
AcDbVertex
100
AcDb2dVertex
  10
35.03815
  20
32.67768
  30
0.0
   0
VERTEX
   5
357
100
AcDbEntity
   8
MAIN
   6
VECTORWORKS_DASH_02
  62
      7
100
AcDbVertex
100
AcDb2dVertex
  10
35.10477
  20
32.63922
  30
0.0
   0
SEQEND
   5
358
100
AcDbEntity
   8
MAIN
   6
VECTORWORKS_DASH_02
   0
POLYLINE
   5
359
100
AcDbEntity
   8
MAIN
   6
VECTORWORKS_DASH_02
  62
      7
100
AcDb2dPolyline
  66
      1
  10
0.0
  20
0.0
  30
0.0
  70
      1
  75
      5
   0
VERTEX
   5
35A
100
AcDbEntity
   8
MAIN
   6
VECTORWORKS_DASH_02
  62
      7
100
AcDbVertex
100
AcDb2dVertex
  10
35.03815
  20
32.67768
  30
0.0
   0
VERTEX
   5
35B
100
AcDbEntity
   8
MAIN
   6
VECTORWORKS_DASH_02
  62
      7
100
AcDbVertex
100
AcDb2dVertex
  10
35.10477
  20
32.71614
  30
0.0
   0
VERTEX
   5
35C
100
AcDbEntity
   8
MAIN
   6
VECTORWORKS_DASH_02
  62
      7
100
AcDbVertex
100
AcDb2dVertex
  10
34.60477
  20
32.67768
  30
0.0
   0
VERTEX
   5
35D
100
AcDbEntity
   8
MAIN
   6
VECTORWORKS_DASH_02
  62
      7
100
AcDbVertex
100
AcDb2dVertex
  10
34.67139
  20
32.63922
  30
0.0
   0
SEQEND
   5
35E
100
AcDbEntity
   8
MAIN
   6
VECTORWORKS_DASH_02
   0
POLYLINE
   5
35F
100
AcDbEntity
   8
MAIN
   6
VECTORWORKS_DASH_02
  62
      7
100
AcDb2dPolyline
  66
      1
  10
0.0
  20
0.0
  30
0.0
  70
      1
  75
      5
   0
VERTEX
   5
360
100
AcDbEntity
   8
MAIN
   6
VECTORWORKS_DASH_02
  62
      7
100
AcDbVertex
100
AcDb2dVertex
  10
34.60477
  20
32.67768
  30
0.0
   0
VERTEX
   5
361
100
AcDbEntity
   8
MAIN
   6
VECTORWORKS_DASH_02
  62
      7
100
AcDbVertex
100
AcDb2dVertex
  10
34.67139
  20
32.71614
  30
0.0
   0
VERTEX
   5
362
100
AcDbEntity
   8
MAIN
   6
VECTORWORKS_DASH_02
  62
      7
100
AcDbVertex
100
AcDb2dVertex
  10
35.03815
  20
32.7546
  30
0.0
   0
VERTEX
   5
363
100
AcDbEntity
   8
MAIN
   6
VECTORWORKS_DASH_02
  62
      7
100
AcDbVertex
100
AcDb2dVertex
  10
35.10477
  20
32.71614
  30
0.0
   0
SEQEND
   5
364
100
AcDbEntity
   8
MAIN
   6
VECTORWORKS_DASH_02
   0
POLYLINE
   5
365
100
AcDbEntity
   8
MAIN
   6
VECTORWORKS_DASH_02
  62
      7
100
AcDb2dPolyline
  66
      1
  10
0.0
  20
0.0
  30
0.0
  70
      1
  75
      5
   0
VERTEX
   5
366
100
AcDbEntity
   8
MAIN
   6
VECTORWORKS_DASH_02
  62
      7
100
AcDbVertex
100
AcDb2dVertex
  10
35.03815
  20
32.7546
  30
0.0
   0
VERTEX
   5
367
100
AcDbEntity
   8
MAIN
   6
VECTORWORKS_DASH_02
  62
      7
100
AcDbVertex
100
AcDb2dVertex
  10
35.10477
  20
32.79306
  30
0.0
   0
VERTEX
   5
368
100
AcDbEntity
   8
MAIN
   6
VECTORWORKS_DASH_02
  62
      7
100
AcDbVertex
100
AcDb2dVertex
  10
34.60477
  20
32.7546
  30
0.0
   0
VERTEX
   5
369
100
AcDbEntity
   8
MAIN
   6
VECTORWORKS_DASH_02
  62
      7
100
AcDbVertex
100
AcDb2dVertex
  10
34.67139
  20
32.71614
  30
0.0
   0
SEQEND
   5
36A
100
AcDbEntity
   8
MAIN
   6
VECTORWORKS_DASH_02
   0
POLYLINE
   5
36B
100
AcDbEntity
   8
MAIN
   6
VECTORWORKS_DASH_02
  62
      7
100
AcDb2dPolyline
  66
      1
  10
0.0
  20
0.0
  30
0.0
  70
      1
  75
      5
   0
VERTEX
   5
36C
100
AcDbEntity
   8
MAIN
   6
VECTORWORKS_DASH_02
  62
      7
100
AcDbVertex
100
AcDb2dVertex
  10
34.60477
  20
32.7546
  30
0.0
   0
VERTEX
   5
36D
100
AcDbEntity
   8
MAIN
   6
VECTORWORKS_DASH_02
  62
      7
100
AcDbVertex
100
AcDb2dVertex
  10
34.67139
  20
32.79306
  30
0.0
   0
VERTEX
   5
36E
100
AcDbEntity
   8
MAIN
   6
VECTORWORKS_DASH_02
  62
      7
100
AcDbVertex
100
AcDb2dVertex
  10
35.03815
  20
32.83152
  30
0.0
   0
VERTEX
   5
36F
100
AcDbEntity
   8
MAIN
   6
VECTORWORKS_DASH_02
  62
      7
100
AcDbVertex
100
AcDb2dVertex
  10
35.10477
  20
32.79306
  30
0.0
   0
SEQEND
   5
370
100
AcDbEntity
   8
MAIN
   6
VECTORWORKS_DASH_02
   0
POLYLINE
   5
371
100
AcDbEntity
   8
MAIN
   6
VECTORWORKS_DASH_02
  62
      7
100
AcDb2dPolyline
  66
      1
  10
0.0
  20
0.0
  30
0.0
  70
      1
  75
      5
   0
VERTEX
   5
372
100
AcDbEntity
   8
MAIN
   6
VECTORWORKS_DASH_02
  62
      7
100
AcDbVertex
100
AcDb2dVertex
  10
35.03815
  20
32.83152
  30
0.0
   0
VERTEX
   5
373
100
AcDbEntity
   8
MAIN
   6
VECTORWORKS_DASH_02
  62
      7
100
AcDbVertex
100
AcDb2dVertex
  10
35.10477
  20
32.86998
  30
0.0
   0
VERTEX
   5
374
100
AcDbEntity
   8
MAIN
   6
VECTORWORKS_DASH_02
  62
      7
100
AcDbVertex
100
AcDb2dVertex
  10
34.60477
  20
32.83152
  30
0.0
   0
VERTEX
   5
375
100
AcDbEntity
   8
MAIN
   6
VECTORWORKS_DASH_02
  62
      7
100
AcDbVertex
100
AcDb2dVertex
  10
34.67139
  20
32.79306
  30
0.0
   0
SEQEND
   5
376
100
AcDbEntity
   8
MAIN
   6
VECTORWORKS_DASH_02
   0
POLYLINE
   5
377
100
AcDbEntity
   8
MAIN
   6
VECTORWORKS_DASH_02
  62
      7
100
AcDb2dPolyline
  66
      1
  10
0.0
  20
0.0
  30
0.0
  70
      1
  75
      5
   0
VERTEX
   5
378
100
AcDbEntity
   8
MAIN
   6
VECTORWORKS_DASH_02
  62
      7
100
AcDbVertex
100
AcDb2dVertex
  10
34.60477
  20
32.83152
  30
0.0
   0
VERTEX
   5
379
100
AcDbEntity
   8
MAIN
   6
VECTORWORKS_DASH_02
  62
      7
100
AcDbVertex
100
AcDb2dVertex
  10
34.67139
  20
32.86998
  30
0.0
   0
VERTEX
   5
37A
100
AcDbEntity
   8
MAIN
   6
VECTORWORKS_DASH_02
  62
      7
100
AcDbVertex
100
AcDb2dVertex
  10
35.03815
  20
32.90844
  30
0.0
   0
VERTEX
   5
37B
100
AcDbEntity
   8
MAIN
   6
VECTORWORKS_DASH_02
  62
      7
100
AcDbVertex
100
AcDb2dVertex
  10
35.10477
  20
32.86998
  30
0.0
   0
SEQEND
   5
37C
100
AcDbEntity
   8
MAIN
   6
VECTORWORKS_DASH_02
   0
POLYLINE
   5
37D
100
AcDbEntity
   8
MAIN
   6
VECTORWORKS_DASH_02
  62
      7
100
AcDb2dPolyline
  66
      1
  10
0.0
  20
0.0
  30
0.0
  70
      1
  75
      5
   0
VERTEX
   5
37E
100
AcDbEntity
   8
MAIN
   6
VECTORWORKS_DASH_02
  62
      7
100
AcDbVertex
100
AcDb2dVertex
  10
35.03815
  20
32.90844
  30
0.0
   0
VERTEX
   5
37F
100
AcDbEntity
   8
MAIN
   6
VECTORWORKS_DASH_02
  62
      7
100
AcDbVertex
100
AcDb2dVertex
  10
35.10477
  20
32.9469
  30
0.0
   0
VERTEX
   5
380
100
AcDbEntity
   8
MAIN
   6
VECTORWORKS_DASH_02
  62
      7
100
AcDbVertex
100
AcDb2dVertex
  10
34.60477
  20
32.90844
  30
0.0
   0
VERTEX
   5
381
100
AcDbEntity
   8
MAIN
   6
VECTORWORKS_DASH_02
  62
      7
100
AcDbVertex
100
AcDb2dVertex
  10
34.67139
  20
32.86998
  30
0.0
   0
SEQEND
   5
382
100
AcDbEntity
   8
MAIN
   6
VECTORWORKS_DASH_02
   0
POLYLINE
   5
383
100
AcDbEntity
   8
MAIN
   6
VECTORWORKS_DASH_02
  62
      7
100
AcDb2dPolyline
  66
      1
  10
0.0
  20
0.0
  30
0.0
  70
      1
  75
      5
   0
VERTEX
   5
384
100
AcDbEntity
   8
MAIN
   6
VECTORWORKS_DASH_02
  62
      7
100
AcDbVertex
100
AcDb2dVertex
  10
34.60477
  20
32.90844
  30
0.0
   0
VERTEX
   5
385
100
AcDbEntity
   8
MAIN
   6
VECTORWORKS_DASH_02
  62
      7
100
AcDbVertex
100
AcDb2dVertex
  10
34.67139
  20
32.9469
  30
0.0
   0
VERTEX
   5
386
100
AcDbEntity
   8
MAIN
   6
VECTORWORKS_DASH_02
  62
      7
100
AcDbVertex
100
AcDb2dVertex
  10
35.03815
  20
32.98536
  30
0.0
   0
VERTEX
   5
387
100
AcDbEntity
   8
MAIN
   6
VECTORWORKS_DASH_02
  62
      7
100
AcDbVertex
100
AcDb2dVertex
  10
35.10477
  20
32.9469
  30
0.0
   0
SEQEND
   5
388
100
AcDbEntity
   8
MAIN
   6
VECTORWORKS_DASH_02
   0
POLYLINE
   5
389
100
AcDbEntity
   8
MAIN
   6
VECTORWORKS_DASH_02
  62
      7
100
AcDb2dPolyline
  66
      1
  10
0.0
  20
0.0
  30
0.0
  70
      1
  75
      5
   0
VERTEX
   5
38A
100
AcDbEntity
   8
MAIN
   6
VECTORWORKS_DASH_02
  62
      7
100
AcDbVertex
100
AcDb2dVertex
  10
35.03815
  20
32.98536
  30
0.0
   0
VERTEX
   5
38B
100
AcDbEntity
   8
MAIN
   6
VECTORWORKS_DASH_02
  62
      7
100
AcDbVertex
100
AcDb2dVertex
  10
35.10477
  20
33.02382
  30
0.0
   0
VERTEX
   5
38C
100
AcDbEntity
   8
MAIN
   6
VECTORWORKS_DASH_02
  62
      7
100
AcDbVertex
100
AcDb2dVertex
  10
34.60477
  20
32.98536
  30
0.0
   0
VERTEX
   5
38D
100
AcDbEntity
   8
MAIN
   6
VECTORWORKS_DASH_02
  62
      7
100
AcDbVertex
100
AcDb2dVertex
  10
34.67139
  20
32.9469
  30
0.0
   0
SEQEND
   5
38E
100
AcDbEntity
   8
MAIN
   6
VECTORWORKS_DASH_02
   0
POLYLINE
   5
38F
100
AcDbEntity
   8
MAIN
   6
VECTORWORKS_DASH_02
  62
      7
100
AcDb2dPolyline
  66
      1
  10
0.0
  20
0.0
  30
0.0
  70
      1
  75
      5
   0
VERTEX
   5
390
100
AcDbEntity
   8
MAIN
   6
VECTORWORKS_DASH_02
  62
      7
100
AcDbVertex
100
AcDb2dVertex
  10
34.60477
  20
32.98536
  30
0.0
   0
VERTEX
   5
391
100
AcDbEntity
   8
MAIN
   6
VECTORWORKS_DASH_02
  62
      7
100
AcDbVertex
100
AcDb2dVertex
  10
34.67139
  20
33.02382
  30
0.0
   0
VERTEX
   5
392
100
AcDbEntity
   8
MAIN
   6
VECTORWORKS_DASH_02
  62
      7
100
AcDbVertex
100
AcDb2dVertex
  10
35.03815
  20
33.06228
  30
0.0
   0
VERTEX
   5
393
100
AcDbEntity
   8
MAIN
   6
VECTORWORKS_DASH_02
  62
      7
100
AcDbVertex
100
AcDb2dVertex
  10
35.10477
  20
33.02382
  30
0.0
   0
SEQEND
   5
394
100
AcDbEntity
   8
MAIN
   6
VECTORWORKS_DASH_02
   0
POLYLINE
   5
395
100
AcDbEntity
   8
MAIN
   6
VECTORWORKS_DASH_02
  62
      7
100
AcDb2dPolyline
  66
      1
  10
0.0
  20
0.0
  30
0.0
  70
      1
  75
      5
   0
VERTEX
   5
396
100
AcDbEntity
   8
MAIN
   6
VECTORWORKS_DASH_02
  62
      7
100
AcDbVertex
100
AcDb2dVertex
  10
35.03815
  20
33.06228
  30
0.0
   0
VERTEX
   5
397
100
AcDbEntity
   8
MAIN
   6
VECTORWORKS_DASH_02
  62
      7
100
AcDbVertex
100
AcDb2dVertex
  10
35.10477
  20
33.10074
  30
0.0
   0
VERTEX
   5
398
100
AcDbEntity
   8
MAIN
   6
VECTORWORKS_DASH_02
  62
      7
100
AcDbVertex
100
AcDb2dVertex
  10
34.60477
  20
33.06228
  30
0.0
   0
VERTEX
   5
399
100
AcDbEntity
   8
MAIN
   6
VECTORWORKS_DASH_02
  62
      7
100
AcDbVertex
100
AcDb2dVertex
  10
34.67139
  20
33.02382
  30
0.0
   0
SEQEND
   5
39A
100
AcDbEntity
   8
MAIN
   6
VECTORWORKS_DASH_02
   0
POLYLINE
   5
39B
100
AcDbEntity
   8
MAIN
   6
VECTORWORKS_DASH_02
  62
      7
100
AcDb2dPolyline
  66
      1
  10
0.0
  20
0.0
  30
0.0
  70
      1
  75
      5
   0
VERTEX
   5
39C
100
AcDbEntity
   8
MAIN
   6
VECTORWORKS_DASH_02
  62
      7
100
AcDbVertex
100
AcDb2dVertex
  10
34.60477
  20
33.06228
  30
0.0
   0
VERTEX
   5
39D
100
AcDbEntity
   8
MAIN
   6
VECTORWORKS_DASH_02
  62
      7
100
AcDbVertex
100
AcDb2dVertex
  10
34.67139
  20
33.10074
  30
0.0
   0
VERTEX
   5
39E
100
AcDbEntity
   8
MAIN
   6
VECTORWORKS_DASH_02
  62
      7
100
AcDbVertex
100
AcDb2dVertex
  10
35.03815
  20
33.1392
  30
0.0
   0
VERTEX
   5
39F
100
AcDbEntity
   8
MAIN
   6
VECTORWORKS_DASH_02
  62
      7
100
AcDbVertex
100
AcDb2dVertex
  10
35.10477
  20
33.10074
  30
0.0
   0
SEQEND
   5
3A0
100
AcDbEntity
   8
MAIN
   6
VECTORWORKS_DASH_02
   0
POLYLINE
   5
3A1
100
AcDbEntity
   8
MAIN
   6
VECTORWORKS_DASH_02
  62
      7
100
AcDb2dPolyline
  66
      1
  10
0.0
  20
0.0
  30
0.0
  70
      1
  75
      5
   0
VERTEX
   5
3A2
100
AcDbEntity
   8
MAIN
   6
VECTORWORKS_DASH_02
  62
      7
100
AcDbVertex
100
AcDb2dVertex
  10
35.03815
  20
33.1392
  30
0.0
   0
VERTEX
   5
3A3
100
AcDbEntity
   8
MAIN
   6
VECTORWORKS_DASH_02
  62
      7
100
AcDbVertex
100
AcDb2dVertex
  10
35.10477
  20
33.17766
  30
0.0
   0
VERTEX
   5
3A4
100
AcDbEntity
   8
MAIN
   6
VECTORWORKS_DASH_02
  62
      7
100
AcDbVertex
100
AcDb2dVertex
  10
34.60477
  20
33.1392
  30
0.0
   0
VERTEX
   5
3A5
100
AcDbEntity
   8
MAIN
   6
VECTORWORKS_DASH_02
  62
      7
100
AcDbVertex
100
AcDb2dVertex
  10
34.67139
  20
33.10074
  30
0.0
   0
SEQEND
   5
3A6
100
AcDbEntity
   8
MAIN
   6
VECTORWORKS_DASH_02
   0
POLYLINE
   5
3A7
100
AcDbEntity
   8
MAIN
   6
VECTORWORKS_DASH_02
  62
      7
100
AcDb2dPolyline
  66
      1
  10
0.0
  20
0.0
  30
0.0
  70
      1
  75
      5
   0
VERTEX
   5
3A8
100
AcDbEntity
   8
MAIN
   6
VECTORWORKS_DASH_02
  62
      7
100
AcDbVertex
100
AcDb2dVertex
  10
34.60477
  20
33.1392
  30
0.0
   0
VERTEX
   5
3A9
100
AcDbEntity
   8
MAIN
   6
VECTORWORKS_DASH_02
  62
      7
100
AcDbVertex
100
AcDb2dVertex
  10
34.67139
  20
33.17766
  30
0.0
   0
VERTEX
   5
3AA
100
AcDbEntity
   8
MAIN
   6
VECTORWORKS_DASH_02
  62
      7
100
AcDbVertex
100
AcDb2dVertex
  10
35.03815
  20
33.21612
  30
0.0
   0
VERTEX
   5
3AB
100
AcDbEntity
   8
MAIN
   6
VECTORWORKS_DASH_02
  62
      7
100
AcDbVertex
100
AcDb2dVertex
  10
35.10477
  20
33.17766
  30
0.0
   0
SEQEND
   5
3AC
100
AcDbEntity
   8
MAIN
   6
VECTORWORKS_DASH_02
   0
POLYLINE
   5
3AD
100
AcDbEntity
   8
MAIN
   6
VECTORWORKS_DASH_02
  62
      7
100
AcDb2dPolyline
  66
      1
  10
0.0
  20
0.0
  30
0.0
  70
      1
  75
      5
   0
VERTEX
   5
3AE
100
AcDbEntity
   8
MAIN
   6
VECTORWORKS_DASH_02
  62
      7
100
AcDbVertex
100
AcDb2dVertex
  10
35.03815
  20
33.21612
  30
0.0
   0
VERTEX
   5
3AF
100
AcDbEntity
   8
MAIN
   6
VECTORWORKS_DASH_02
  62
      7
100
AcDbVertex
100
AcDb2dVertex
  10
35.10477
  20
33.25458
  30
0.0
   0
VERTEX
   5
3B0
100
AcDbEntity
   8
MAIN
   6
VECTORWORKS_DASH_02
  62
      7
100
AcDbVertex
100
AcDb2dVertex
  10
34.60477
  20
33.21612
  30
0.0
   0
VERTEX
   5
3B1
100
AcDbEntity
   8
MAIN
   6
VECTORWORKS_DASH_02
  62
      7
100
AcDbVertex
100
AcDb2dVertex
  10
34.67139
  20
33.17766
  30
0.0
   0
SEQEND
   5
3B2
100
AcDbEntity
   8
MAIN
   6
VECTORWORKS_DASH_02
   0
POLYLINE
   5
3B3
100
AcDbEntity
   8
MAIN
   6
VECTORWORKS_DASH_02
  62
      7
100
AcDb2dPolyline
  66
      1
  10
0.0
  20
0.0
  30
0.0
  70
      1
  75
      5
   0
VERTEX
   5
3B4
100
AcDbEntity
   8
MAIN
   6
VECTORWORKS_DASH_02
  62
      7
100
AcDbVertex
100
AcDb2dVertex
  10
34.60477
  20
33.21612
  30
0.0
   0
VERTEX
   5
3B5
100
AcDbEntity
   8
MAIN
   6
VECTORWORKS_DASH_02
  62
      7
100
AcDbVertex
100
AcDb2dVertex
  10
34.67139
  20
33.25458
  30
0.0
   0
VERTEX
   5
3B6
100
AcDbEntity
   8
MAIN
   6
VECTORWORKS_DASH_02
  62
      7
100
AcDbVertex
100
AcDb2dVertex
  10
35.03815
  20
33.29304
  30
0.0
   0
VERTEX
   5
3B7
100
AcDbEntity
   8
MAIN
   6
VECTORWORKS_DASH_02
  62
      7
100
AcDbVertex
100
AcDb2dVertex
  10
35.10477
  20
33.25458
  30
0.0
   0
SEQEND
   5
3B8
100
AcDbEntity
   8
MAIN
   6
VECTORWORKS_DASH_02
   0
POLYLINE
   5
3B9
100
AcDbEntity
   8
MAIN
   6
VECTORWORKS_DASH_02
  62
      7
100
AcDb2dPolyline
  66
      1
  10
0.0
  20
0.0
  30
0.0
  70
      1
  75
      5
   0
VERTEX
   5
3BA
100
AcDbEntity
   8
MAIN
   6
VECTORWORKS_DASH_02
  62
      7
100
AcDbVertex
100
AcDb2dVertex
  10
35.03815
  20
33.29304
  30
0.0
   0
VERTEX
   5
3BB
100
AcDbEntity
   8
MAIN
   6
VECTORWORKS_DASH_02
  62
      7
100
AcDbVertex
100
AcDb2dVertex
  10
35.10477
  20
33.3315
  30
0.0
   0
VERTEX
   5
3BC
100
AcDbEntity
   8
MAIN
   6
VECTORWORKS_DASH_02
  62
      7
100
AcDbVertex
100
AcDb2dVertex
  10
34.60477
  20
33.29304
  30
0.0
   0
VERTEX
   5
3BD
100
AcDbEntity
   8
MAIN
   6
VECTORWORKS_DASH_02
  62
      7
100
AcDbVertex
100
AcDb2dVertex
  10
34.67139
  20
33.25458
  30
0.0
   0
SEQEND
   5
3BE
100
AcDbEntity
   8
MAIN
   6
VECTORWORKS_DASH_02
   0
POLYLINE
   5
3BF
100
AcDbEntity
   8
MAIN
   6
VECTORWORKS_DASH_02
  62
      7
100
AcDb2dPolyline
  66
      1
  10
0.0
  20
0.0
  30
0.0
  75
      5
   0
VERTEX
   5
3C0
100
AcDbEntity
   8
MAIN
   6
VECTORWORKS_DASH_02
  62
      7
100
AcDbVertex
100
AcDb2dVertex
  10
35.10477
  20
33.3315
  30
0.0
   0
VERTEX
   5
3C1
100
AcDbEntity
   8
MAIN
   6
VECTORWORKS_DASH_02
  62
      7
100
AcDbVertex
100
AcDb2dVertex
  10
34.60477
  20
33.29304
  30
0.0
   0
VERTEX
   5
3C2
100
AcDbEntity
   8
MAIN
   6
VECTORWORKS_DASH_02
  62
      7
100
AcDbVertex
100
AcDb2dVertex
  10
34.67139
  20
33.3315
  30
0.0
   0
SEQEND
   5
3C3
100
AcDbEntity
   8
MAIN
   6
VECTORWORKS_DASH_02
   0
POLYLINE
   5
3C4
100
AcDbEntity
   8
MAIN
   6
VECTORWORKS_DASH_02
  62
      7
100
AcDb2dPolyline
  66
      1
  10
0.0
  20
0.0
  30
0.0
  70
      1
  75
      5
   0
VERTEX
   5
3C5
100
AcDbEntity
   8
MAIN
   6
VECTORWORKS_DASH_02
  62
      7
100
AcDbVertex
100
AcDb2dVertex
  10
34.67139
  20
33.3315
  30
0.0
   0
VERTEX
   5
3C6
100
AcDbEntity
   8
MAIN
   6
VECTORWORKS_DASH_02
  62
      7
100
AcDbVertex
100
AcDb2dVertex
  10
34.63808
  20
33.35073
  30
0.0
   0
VERTEX
   5
3C7
100
AcDbEntity
   8
MAIN
   6
VECTORWORKS_DASH_02
  62
      7
100
AcDbVertex
100
AcDb2dVertex
  10
34.85477
  20
33.35073
  30
0.0
   0
VERTEX
   5
3C8
100
AcDbEntity
   8
MAIN
   6
VECTORWORKS_DASH_02
  62
      7
100
AcDbVertex
100
AcDb2dVertex
  10
34.67139
  20
33.3315
  30
0.0
   0
SEQEND
   5
3C9
100
AcDbEntity
   8
MAIN
   6
VECTORWORKS_DASH_02
   0
LWPOLYLINE
   5
3CA
100
AcDbEntity
   8
MAIN
   6
VECTORWORKS_DASH_02
  62
      7
100
AcDbPolyline
  90
         5
  70
    129
  10
18.10477
  20
23.10885
  10
19.85477
  20
23.10885
  10
19.85477
  20
16.73385
  10
18.10477
  20
16.73385
  10
18.10477
  20
23.10885
   0
LINE
   5
3CB
100
AcDbEntity
   8
MAIN
   6
CONTINUOUS
  62
      5
100
AcDbLine
  10
17.70477
  20
10.03385
  30
0.0
  11
17.70477
  21
12.2
  31
0.0
   0
LINE
   5
3CC
100
AcDbEntity
   8
MAIN
   6
CONTINUOUS
  62
      5
100
AcDbLine
  10
35.70477
  20
10.03385
  30
0.0
  11
35.70477
  21
12.2
  31
0.0
   0
LINE
   5
3CD
100
AcDbEntity
   8
MAIN
   6
CONTINUOUS
  62
      5
100
AcDbLine
  10
17.57977
  20
11.95
  30
0.0
  11
17.70477
  21
11.95
  31
0.0
   0
LINE
   5
3CE
100
AcDbEntity
   8
MAIN
   6
CONTINUOUS
  62
      5
100
AcDbLine
  10
35.70477
  20
11.95
  30
0.0
  11
35.82977
  21
11.95
  31
0.0
   0
LINE
   5
3D0
100
AcDbEntity
   8
MAIN
  62
      5
100
AcDbLine
  10
17.79316
  20
12.03839
  30
0.0
  11
17.61638
  21
11.86161
  31
0.0
   0
LINE
   5
3D1
100
AcDbEntity
   8
MAIN
  62
      5
100
AcDbLine
  10
35.61638
  20
11.86161
  30
0.0
  11
35.79316
  21
12.03839
  31
0.0
   0
LINE
   5
3CF
100
AcDbEntity
   8
MAIN
   6
CONTINUOUS
  62
      5
100
AcDbLine
  10
17.70477
  20
11.95
  30
0.0
  11
35.70477
  21
11.95
  31
0.0
   0
INSERT
   5
3D2
100
AcDbEntity
   8
MAIN
100
AcDbBlockReference
   2
*G49
  10
12.59654
  20
16.75151
  30
0.0
   0
LINE
   5
3D3
100
AcDbEntity
   8
MAIN
   6
CONTINUOUS
  62
      5
100
AcDbLine
  10
18.97977
  20
7.1276
  30
0.0
  11
18.97977
  21
4.95
  31
0.0
   0
LINE
   5
3D4
100
AcDbEntity
   8
MAIN
   6
CONTINUOUS
  62
      5
100
AcDbLine
  10
34.85477
  20
8.03385
  30
0.0
  11
34.85477
  21
4.95
  31
0.0
   0
LINE
   5
3D5
100
AcDbEntity
   8
MAIN
   6
CONTINUOUS
  62
      5
100
AcDbLine
  10
18.85477
  20
5.2
  30
0.0
  11
18.97977
  21
5.2
  31
0.0
   0
LINE
   5
3D6
100
AcDbEntity
   8
MAIN
   6
CONTINUOUS
  62
      5
100
AcDbLine
  10
34.85477
  20
5.2
  30
0.0
  11
34.97977
  21
5.2
  31
0.0
   0
LINE
   5
3D8
100
AcDbEntity
   8
MAIN
  62
      5
100
AcDbLine
  10
19.06816
  20
5.28839
  30
0.0
  11
18.89138
  21
5.11161
  31
0.0
   0
LINE
   5
3D9
100
AcDbEntity
   8
MAIN
  62
      5
100
AcDbLine
  10
34.76638
  20
5.11161
  30
0.0
  11
34.94316
  21
5.28839
  31
0.0
   0
LINE
   5
3D7
100
AcDbEntity
   8
MAIN
   6
CONTINUOUS
  62
      5
100
AcDbLine
  10
18.97977
  20
5.2
  30
0.0
  11
34.85477
  21
5.2
  31
0.0
   0
INSERT
   5
3DA
100
AcDbEntity
   8
MAIN
100
AcDbBlockReference
   2
*G50
  10
12.59654
  20
16.75151
  30
0.0
   0
LINE
   5
3DB
100
AcDbEntity
   8
MAIN
   6
CONTINUOUS
  62
      5
100
AcDbLine
  10
34.85477
  20
7.78385
  30
0.0
  11
34.85477
  21
6.38771
  31
0.0
   0
LINE
   5
3DC
100
AcDbEntity
   8
MAIN
   6
CONTINUOUS
  62
      5
100
AcDbLine
  10
35.70477
  20
7.78385
  30
0.0
  11
35.70477
  21
6.38771
  31
0.0
   0
LINE
   5
3DD
100
AcDbEntity
   8
MAIN
   6
CONTINUOUS
  62
      5
100
AcDbLine
  10
34.72977
  20
6.63771
  30
0.0
  11
34.85477
  21
6.63771
  31
0.0
   0
LINE
   5
3DE
100
AcDbEntity
   8
MAIN
   6
CONTINUOUS
  62
      5
100
AcDbLine
  10
35.70477
  20
6.63771
  30
0.0
  11
35.82977
  21
6.63771
  31
0.0
   0
LINE
   5
3DF
100
AcDbEntity
   8
MAIN
   6
CONTINUOUS
  62
      5
100
AcDbLine
  10
35.70477
  20
6.63771
  30
0.0
  11
38.42846
  21
6.63771
  31
0.0
   0
LINE
   5
3E1
100
AcDbEntity
   8
MAIN
  62
      5
100
AcDbLine
  10
34.94316
  20
6.7261
  30
0.0
  11
34.76638
  21
6.54932
  31
0.0
   0
LINE
   5
3E2
100
AcDbEntity
   8
MAIN
  62
      5
100
AcDbLine
  10
35.61638
  20
6.54932
  30
0.0
  11
35.79316
  21
6.7261
  31
0.0
   0
LINE
   5
3E0
100
AcDbEntity
   8
MAIN
   6
CONTINUOUS
  62
      5
100
AcDbLine
  10
34.85477
  20
6.63771
  30
0.0
  11
35.70477
  21
6.63771
  31
0.0
   0
INSERT
   5
3E3
100
AcDbEntity
   8
MAIN
100
AcDbBlockReference
   2
*G51
  10
12.59654
  20
16.75151
  30
0.0
   0
LINE
   5
3E4
100
AcDbEntity
   8
MAIN
   6
CONTINUOUS
  62
      5
100
AcDbLine
  10
35.82977
  20
9.90885
  30
0.0
  11
37.3625
  21
9.90885
  31
0.0
   0
LINE
   5
3E5
100
AcDbEntity
   8
MAIN
   6
CONTINUOUS
  62
      5
100
AcDbLine
  10
35.82977
  20
7.90885
  30
0.0
  11
37.3625
  21
7.90885
  31
0.0
   0
LINE
   5
3E6
100
AcDbEntity
   8
MAIN
   6
CONTINUOUS
  62
      5
100
AcDbLine
  10
37.1125
  20
10.03385
  30
0.0
  11
37.1125
  21
9.90885
  31
0.0
   0
LINE
   5
3E7
100
AcDbEntity
   8
MAIN
   6
CONTINUOUS
  62
      5
100
AcDbLine
  10
37.1125
  20
7.90885
  30
0.0
  11
37.1125
  21
7.78385
  31
0.0
   0
LINE
   5
3E8
100
AcDbEntity
   8
MAIN
   6
CONTINUOUS
  62
      5
100
AcDbLine
  10
37.1125
  20
9.90885
  30
0.0
  11
37.1125
  21
12.9
  31
0.0
   0
LINE
   5
3EA
100
AcDbEntity
   8
MAIN
  62
      5
100
AcDbLine
  10
37.20089
  20
9.82046
  30
0.0
  11
37.02411
  21
9.99724
  31
0.0
   0
LINE
   5
3EB
100
AcDbEntity
   8
MAIN
  62
      5
100
AcDbLine
  10
37.02411
  20
7.99724
  30
0.0
  11
37.20089
  21
7.82046
  31
0.0
   0
LINE
   5
3E9
100
AcDbEntity
   8
MAIN
   6
CONTINUOUS
  62
      5
100
AcDbLine
  10
37.1125
  20
9.90885
  30
0.0
  11
37.1125
  21
7.90885
  31
0.0
   0
INSERT
   5
3EC
100
AcDbEntity
   8
MAIN
100
AcDbBlockReference
   2
*G52
  10
12.59654
  20
16.75151
  30
0.0
   0
LINE
   5
3ED
100
AcDbEntity
   8
MAIN
   6
CONTINUOUS
  62
      5
100
AcDbLine
  10
20.6375
  20
23.10885
  30
0.0
  11
23.1125
  21
23.10885
  31
0.0
   0
LINE
   5
3EE
100
AcDbEntity
   8
MAIN
   6
CONTINUOUS
  62
      5
100
AcDbLine
  10
21.35477
  20
16.73385
  30
0.0
  11
23.1125
  21
16.73385
  31
0.0
   0
LINE
   5
3EF
100
AcDbEntity
   8
MAIN
   6
CONTINUOUS
  62
      5
100
AcDbLine
  10
22.8625
  20
23.23385
  30
0.0
  11
22.8625
  21
23.10885
  31
0.0
   0
LINE
   5
3F0
100
AcDbEntity
   8
MAIN
   6
CONTINUOUS
  62
      5
100
AcDbLine
  10
22.8625
  20
16.73385
  30
0.0
  11
22.8625
  21
16.60885
  31
0.0
   0
LINE
   5
3F2
100
AcDbEntity
   8
MAIN
  62
      5
100
AcDbLine
  10
22.95089
  20
23.02046
  30
0.0
  11
22.77411
  21
23.19724
  31
0.0
   0
LINE
   5
3F3
100
AcDbEntity
   8
MAIN
  62
      5
100
AcDbLine
  10
22.77411
  20
16.82224
  30
0.0
  11
22.95089
  21
16.64546
  31
0.0
   0
LINE
   5
3F1
100
AcDbEntity
   8
MAIN
   6
CONTINUOUS
  62
      5
100
AcDbLine
  10
22.8625
  20
23.10885
  30
0.0
  11
22.8625
  21
16.73385
  31
0.0
   0
INSERT
   5
3F4
100
AcDbEntity
   8
MAIN
100
AcDbBlockReference
   2
*G53
  10
12.59654
  20
16.75151
  30
0.0
   0
LINE
   5
3F5
100
AcDbEntity
   8
MAIN
   6
CONTINUOUS
  62
      5
100
AcDbLine
  10
34.35477
  20
33.37
  30
0.0
  11
31.8125
  21
33.37
  31
0.0
   0
LINE
   5
3F6
100
AcDbEntity
   8
MAIN
   6
CONTINUOUS
  62
      5
100
AcDbLine
  10
32.9375
  20
23.60885
  30
0.0
  11
31.8125
  21
23.60885
  31
0.0
   0
LINE
   5
3F7
100
AcDbEntity
   8
MAIN
   6
CONTINUOUS
  62
      5
100
AcDbLine
  10
32.0625
  20
33.495
  30
0.0
  11
32.0625
  21
33.37
  31
0.0
   0
LINE
   5
3F8
100
AcDbEntity
   8
MAIN
   6
CONTINUOUS
  62
      5
100
AcDbLine
  10
32.0625
  20
23.60885
  30
0.0
  11
32.0625
  21
23.48385
  31
0.0
   0
LINE
   5
3FA
100
AcDbEntity
   8
MAIN
  62
      5
100
AcDbLine
  10
32.15089
  20
33.28161
  30
0.0
  11
31.97411
  21
33.45839
  31
0.0
   0
LINE
   5
3FB
100
AcDbEntity
   8
MAIN
  62
      5
100
AcDbLine
  10
31.97411
  20
23.69724
  30
0.0
  11
32.15089
  21
23.52046
  31
0.0
   0
LINE
   5
3F9
100
AcDbEntity
   8
MAIN
   6
CONTINUOUS
  62
      5
100
AcDbLine
  10
32.0625
  20
33.37
  30
0.0
  11
32.0625
  21
23.60885
  31
0.0
   0
INSERT
   5
3FC
100
AcDbEntity
   8
MAIN
100
AcDbBlockReference
   2
*G54
  10
12.59654
  20
16.75151
  30
0.0
   0
LINE
   5
3FD
100
AcDbEntity
   8
MAIN
   6
CONTINUOUS
  62
      5
100
AcDbLine
  10
34.87977
  20
34.37
  30
0.0
  11
32.39001
  21
34.37
  31
0.0
   0
LINE
   5
3FE
100
AcDbEntity
   8
MAIN
   6
CONTINUOUS
  62
      5
100
AcDbLine
  10
34.72977
  20
32.37
  30
0.0
  11
32.39001
  21
32.37
  31
0.0
   0
LINE
   5
3FF
100
AcDbEntity
   8
MAIN
   6
CONTINUOUS
  62
      5
100
AcDbLine
  10
32.64001
  20
34.495
  30
0.0
  11
32.64001
  21
34.37
  31
0.0
   0
LINE
   5
400
100
AcDbEntity
   8
MAIN
   6
CONTINUOUS
  62
      5
100
AcDbLine
  10
32.64001
  20
32.37
  30
0.0
  11
32.64001
  21
32.245
  31
0.0
   0
LINE
   5
401
100
AcDbEntity
   8
MAIN
   6
CONTINUOUS
  62
      5
100
AcDbLine
  10
32.64001
  20
34.37
  30
0.0
  11
32.64001
  21
37.22958
  31
0.0
   0
LINE
   5
403
100
AcDbEntity
   8
MAIN
  62
      5
100
AcDbLine
  10
32.7284
  20
34.28161
  30
0.0
  11
32.55162
  21
34.45839
  31
0.0
   0
LINE
   5
404
100
AcDbEntity
   8
MAIN
  62
      5
100
AcDbLine
  10
32.55162
  20
32.45839
  30
0.0
  11
32.7284
  21
32.28161
  31
0.0
   0
LINE
   5
402
100
AcDbEntity
   8
MAIN
   6
CONTINUOUS
  62
      5
100
AcDbLine
  10
32.64001
  20
34.37
  30
0.0
  11
32.64001
  21
32.37
  31
0.0
   0
INSERT
   5
405
100
AcDbEntity
   8
MAIN
100
AcDbBlockReference
   2
*G55
  10
12.59654
  20
16.75151
  30
0.0
   0
LINE
   5
406
100
AcDbEntity
   8
MAIN
   6
CONTINUOUS
  62
      5
100
AcDbLine
  10
35.35477
  20
33.37
  30
0.0
  11
36.9875
  21
33.37
  31
0.0
   0
LINE
   5
407
100
AcDbEntity
   8
MAIN
   6
CONTINUOUS
  62
      5
100
AcDbLine
  10
34.97977
  20
32.37
  30
0.0
  11
36.9875
  21
32.37
  31
0.0
   0
LINE
   5
408
100
AcDbEntity
   8
MAIN
   6
CONTINUOUS
  62
      5
100
AcDbLine
  10
36.7375
  20
33.495
  30
0.0
  11
36.7375
  21
33.37
  31
0.0
   0
LINE
   5
409
100
AcDbEntity
   8
MAIN
   6
CONTINUOUS
  62
      5
100
AcDbLine
  10
36.7375
  20
32.37
  30
0.0
  11
36.7375
  21
32.245
  31
0.0
   0
LINE
   5
40A
100
AcDbEntity
   8
MAIN
   6
CONTINUOUS
  62
      5
100
AcDbLine
  10
36.7375
  20
33.37
  30
0.0
  11
36.7375
  21
35.91737
  31
0.0
   0
LINE
   5
40C
100
AcDbEntity
   8
MAIN
  62
      5
100
AcDbLine
  10
36.82589
  20
33.28161
  30
0.0
  11
36.64911
  21
33.45839
  31
0.0
   0
LINE
   5
40D
100
AcDbEntity
   8
MAIN
  62
      5
100
AcDbLine
  10
36.64911
  20
32.45839
  30
0.0
  11
36.82589
  21
32.28161
  31
0.0
   0
LINE
   5
40B
100
AcDbEntity
   8
MAIN
   6
CONTINUOUS
  62
      5
100
AcDbLine
  10
36.7375
  20
33.37
  30
0.0
  11
36.7375
  21
32.37
  31
0.0
   0
INSERT
   5
40E
100
AcDbEntity
   8
MAIN
100
AcDbBlockReference
   2
*G56
  10
12.59654
  20
16.75151
  30
0.0
   0
LWPOLYLINE
   5
40F
100
AcDbEntity
   8
MAIN
   6
CONTINUOUS
  62
      7
100
AcDbPolyline
  90
         5
  70
    129
  10
34.47977
  20
34.18341
  10
35.22977
  20
34.18341
  10
35.22977
  20
33.73541
  10
34.47977
  20
33.73541
  10
34.47977
  20
34.18341
   0
SPLINE
   5
410
100
AcDbEntity
   8
MAIN
   6
CONTINUOUS
  62
      7
100
AcDbSpline
210
0.0
220
0.0
230
1.0
  70
      8
  71
      3
  72
     11
  73
      7
  74
      0
  42
0.000001
  43
0.000001
  40
0.0
  40
0.0
  40
0.0
  40
0.0
  40
1.0
  40
1.0
  40
1.0
  40
2.0
  40
2.0
  40
2.0
  40
2.0
  10
34.479770000000002
  20
34.1499199999999945
  30
0.0
  10
34.604770000000002
  20
34.1944799999999987
  30
0.0
  10
34.729770000000002
  20
34.1944799999999987
  30
0.0
  10
34.854770000000002
  20
34.1499199999999945
  30
0.0
  10
34.979770000000002
  20
34.1944799999999987
  30
0.0
  10
35.104770000000002
  20
34.1944799999999987
  30
0.0
  10
35.229770000000002
  20
34.1499199999999945
  30
0.0
   0
SPLINE
   5
411
100
AcDbEntity
   8
MAIN
   6
CONTINUOUS
  62
      7
100
AcDbSpline
210
0.0
220
0.0
230
1.0
  70
      8
  71
      3
  72
     11
  73
      7
  74
      0
  42
0.000001
  43
0.000001
  40
0.0
  40
0.0
  40
0.0
  40
0.0
  40
1.0
  40
1.0
  40
1.0
  40
2.0
  40
2.0
  40
2.0
  40
2.0
  10
34.479770000000002
  20
33.7689099999999982
  30
0.0
  10
34.604770000000002
  20
33.7243500000000012
  30
0.0
  10
34.729770000000002
  20
33.7243500000000012
  30
0.0
  10
34.854770000000002
  20
33.7689099999999982
  30
0.0
  10
34.979770000000002
  20
33.7243500000000012
  30
0.0
  10
35.104770000000002
  20
33.7243500000000012
  30
0.0
  10
35.229770000000002
  20
33.7689099999999982
  30
0.0
   0
LINE
   5
412
100
AcDbEntity
   8
MAIN
   6
CONTINUOUS
  62
      7
100
AcDbLine
  10
34.85477
  20
34.14992
  30
0.0
  11
34.85477
  21
33.76891
  31
0.0
   0
LINE
   5
413
100
AcDbEntity
   8
MAIN
   6
CONTINUOUS
  62
      5
100
AcDbLine
  10
35.10838
  20
27.495
  30
0.0
  11
35.10838
  21
27.62
  31
0.0
   0
LINE
   5
414
100
AcDbEntity
   8
MAIN
   6
CONTINUOUS
  62
      5
100
AcDbLine
  10
35.22977
  20
27.495
  30
0.0
  11
35.22977
  21
27.62
  31
0.0
   0
LINE
   5
415
100
AcDbEntity
   8
MAIN
   6
CONTINUOUS
  62
      5
100
AcDbLine
  10
34.98338
  20
27.37
  30
0.0
  11
35.10838
  21
27.37
  31
0.0
   0
LINE
   5
416
100
AcDbEntity
   8
MAIN
   6
CONTINUOUS
  62
      5
100
AcDbLine
  10
35.22977
  20
27.37
  30
0.0
  11
35.35477
  21
27.37
  31
0.0
   0
LINE
   5
417
100
AcDbEntity
   8
MAIN
   6
CONTINUOUS
  62
      5
100
AcDbLine
  10
35.22977
  20
27.37
  30
0.0
  11
38.03498
  21
27.37
  31
0.0
   0
LINE
   5
419
100
AcDbEntity
   8
MAIN
  62
      5
100
AcDbLine
  10
35.19677
  20
27.45839
  30
0.0
  11
35.01999
  21
27.28161
  31
0.0
   0
LINE
   5
41A
100
AcDbEntity
   8
MAIN
  62
      5
100
AcDbLine
  10
35.14138
  20
27.28161
  30
0.0
  11
35.31816
  21
27.45839
  31
0.0
   0
LINE
   5
418
100
AcDbEntity
   8
MAIN
   6
CONTINUOUS
  62
      5
100
AcDbLine
  10
35.10838
  20
27.37
  30
0.0
  11
35.22977
  21
27.37
  31
0.0
   0
INSERT
   5
41B
100
AcDbEntity
   8
MAIN
100
AcDbBlockReference
   2
*G57
  10
12.59654
  20
16.75151
  30
0.0
   0
TEXT
   5
41C
100
AcDbEntity
   8
MAIN
  62
      5
100
AcDbText
  10
22.9625
  20
31.48333
  30
0.0
  40
0.53334
   1
0.750"dia. x 0.125" wall
  41
0.6
100
AcDbText
   0
TEXT
   5
41D
100
AcDbEntity
   8
MAIN
  62
      5
100
AcDbText
  10
22.9625
  20
30.71666
  30
0.0
  40
0.53334
   1
Chrome/Moly tubing
  41
0.6
100
AcDbText
   0
LINE
   5
41E
100
AcDbEntity
   8
MAIN
   6
CONTINUOUS
  62
      5
100
AcDbLine
  10
29.8125
  20
31.45
  30
0.0
  11
32.5625
  21
31.45
  31
0.0
   0
SOLID
   5
420
100
AcDbEntity
   8
MAIN
  62
      5
100
AcDbTrace
  10
34.47977
  20
30.34306
  30
0.0
  11
34.23098
  21
30.4144
  31
0.0
  12
34.29998
  22
30.52924
  32
0.0
  13
34.29998
  23
30.52924
  33
0.0
   0
LINE
   5
41F
100
AcDbEntity
   8
MAIN
   6
CONTINUOUS
  62
      5
100
AcDbLine
  10
32.5625
  20
31.45
  30
0.0
  11
34.47977
  21
30.34306
  31
0.0
   0
TEXT
   5
421
100
AcDbEntity
   8
MAIN
  62
      5
100
AcDbText
  10
36.2125
  20
32.16234
  30
0.0
  40
0.53334
   1
Weld
  41
0.6
  11
36.2125
  21
32.16234
  31
0.0
100
AcDbText
  73
      3
   0
TEXT
   5
422
100
AcDbEntity
   8
MAIN
  62
      5
100
AcDbText
  10
36.1625
  20
24.9
  30
0.0
  40
0.53334
   1
Weld
  41
0.6
  11
36.1625
  21
24.9
  31
0.0
100
AcDbText
  73
      3
   0
SOLID
   5
424
100
AcDbEntity
   8
MAIN
  62
      5
100
AcDbTrace
  10
35.3225
  20
23.64
  30
0.0
  11
35.46723
  21
23.85457
  31
0.0
  12
35.55513
  22
23.75346
  32
0.0
  13
35.55513
  23
23.75346
  33
0.0
   0
LINE
   5
423
100
AcDbEntity
   8
MAIN
   6
CONTINUOUS
  62
      5
100
AcDbLine
  10
36.1625
  20
24.39453
  30
0.0
  11
35.3225
  21
23.64
  31
0.0
   0
SOLID
   5
426
100
AcDbEntity
   8
MAIN
  62
      5
100
AcDbTrace
  10
35.2075
  20
33.27
  30
0.0
  11
35.41951
  21
33.12155
  31
0.0
  12
35.31688
  22
33.03543
  32
0.0
  13
35.31688
  23
33.03543
  33
0.0
   0
LINE
   5
425
100
AcDbEntity
   8
MAIN
   6
CONTINUOUS
  62
      5
100
AcDbLine
  10
35.2075
  20
33.27
  30
0.0
  11
36.1702
  21
32.16234
  31
0.0
   0
TEXT
   5
427
100
AcDbEntity
   8
MAIN
  62
      5
100
AcDbText
  10
15.4125
  20
20.33334
  30
0.0
  40
0.53334
   1
Weld
  41
0.6
  11
15.4125
  21
20.33334
  31
0.0
100
AcDbText
  73
      3
   0
SOLID
   5
429
100
AcDbEntity
   8
MAIN
  62
      5
100
AcDbTrace
  10
17.8425
  20
22.91
  30
0.0
  11
17.81994
  21
22.65216
  31
0.0
  12
17.69405
  22
22.69799
  32
0.0
  13
17.69405
  23
22.69799
  33
0.0
   0
LINE
   5
428
100
AcDbEntity
   8
MAIN
   6
CONTINUOUS
  62
      5
100
AcDbLine
  10
16.92584
  20
20.29677
  30
0.0
  11
17.8425
  21
22.91
  31
0.0
   0
SOLID
   5
42B
100
AcDbEntity
   8
MAIN
  62
      5
100
AcDbTrace
  10
17.8125
  20
16.775
  30
0.0
  11
17.66405
  21
16.98701
  31
0.0
  12
17.78994
  22
17.03284
  32
0.0
  13
17.78994
  23
17.03284
  33
0.0
   0
LINE
   5
42A
100
AcDbEntity
   8
MAIN
   6
CONTINUOUS
  62
      5
100
AcDbLine
  10
17.8125
  20
16.775
  30
0.0
  11
16.78639
  21
19.56667
  31
0.0
   0
TEXT
   5
42C
100
AcDbEntity
   8
MAIN
  62
      5
100
AcDbText
  10
25.2625
  20
20.83333
  30
0.0
  40
0.53334
   1
2" dia. x 0.125" wall
  41
0.6
100
AcDbText
   0
TEXT
   5
42D
100
AcDbEntity
   8
MAIN
  62
      5
100
AcDbText
  10
25.2625
  20
20.06666
  30
0.0
  40
0.53334
   1
Steel tubing
  41
0.6
100
AcDbText
   0
LINE
   5
42E
100
AcDbEntity
   8
MAIN
   6
CONTINUOUS
  62
      5
100
AcDbLine
  10
24.9625
  20
21.2
  30
0.0
  11
21.0625
  21
21.2
  31
0.0
   0
SOLID
   5
430
100
AcDbEntity
   8
MAIN
  62
      5
100
AcDbTrace
  10
19.97977
  20
20.57489
  30
0.0
  11
20.16595
  21
20.75468
  31
0.0
  12
20.2309
  22
20.6375
  32
0.0
  13
20.2309
  23
20.6375
  33
0.0
   0
LINE
   5
42F
100
AcDbEntity
   8
MAIN
   6
CONTINUOUS
  62
      5
100
AcDbLine
  10
21.0625
  20
21.2
  30
0.0
  11
19.97977
  21
20.57489
  31
0.0
   0
LINE
   5
431
100
AcDbEntity
   8
MAIN
   6
CONTINUOUS
  62
      5
100
AcDbLine
  10
35.82977
  20
23.60885
  30
0.0
  11
37.15688
  21
23.60885
  31
0.0
   0
LINE
   5
432
100
AcDbEntity
   8
MAIN
   6
CONTINUOUS
  62
      5
100
AcDbLine
  10
35.82977
  20
23.10885
  30
0.0
  11
37.15688
  21
23.10885
  31
0.0
   0
LINE
   5
433
100
AcDbEntity
   8
MAIN
   6
CONTINUOUS
  62
      5
100
AcDbLine
  10
36.90688
  20
23.73385
  30
0.0
  11
36.90688
  21
23.60885
  31
0.0
   0
LINE
   5
434
100
AcDbEntity
   8
MAIN
   6
CONTINUOUS
  62
      5
100
AcDbLine
  10
36.90688
  20
23.10885
  30
0.0
  11
36.90688
  21
22.98385
  31
0.0
   0
LINE
   5
435
100
AcDbEntity
   8
MAIN
   6
CONTINUOUS
  62
      5
100
AcDbLine
  10
36.90688
  20
23.10885
  30
0.0
  11
36.90688
  21
20.50885
  31
0.0
   0
LINE
   5
437
100
AcDbEntity
   8
MAIN
  62
      5
100
AcDbLine
  10
36.99527
  20
23.52046
  30
0.0
  11
36.81849
  21
23.69724
  31
0.0
   0
LINE
   5
438
100
AcDbEntity
   8
MAIN
  62
      5
100
AcDbLine
  10
36.81849
  20
23.19724
  30
0.0
  11
36.99527
  21
23.02046
  31
0.0
   0
LINE
   5
436
100
AcDbEntity
   8
MAIN
   6
CONTINUOUS
  62
      5
100
AcDbLine
  10
36.90688
  20
23.60885
  30
0.0
  11
36.90688
  21
23.10885
  31
0.0
   0
INSERT
   5
439
100
AcDbEntity
   8
MAIN
100
AcDbBlockReference
   2
*G58
  10
12.59654
  20
16.75151
  30
0.0
   0
TEXT
   5
43A
100
AcDbEntity
   8
MAIN
  62
      5
100
AcDbText
  10
39.38023
  20
20.81667
  30
0.0
  40
0.8
   1
Spinner Tube
  41
0.6
  11
39.38023
  21
20.81667
  31
0.0
100
AcDbText
  73
      3
   0
ENDSEC
   0
SECTION
   2
OBJECTS
   0
DICTIONARY
   5
19
100
AcDbDictionary
   3
ACAD_GROUP
350
1A
   3
ACAD_MLINESTYLE
350
1B
   0
DICTIONARY
   5
1A
102
{ACAD_REACTORS
330
19
102
}
100
AcDbDictionary
   0
DICTIONARY
   5
1B
102
{ACAD_REACTORS
330
19
102
}
100
AcDbDictionary
   3
STANDARD
350
1C
   0
MLINESTYLE
   5
1C
102
{ACAD_REACTORS
330
1B
102
}
100
AcDbMlineStyle
   2
STANDARD
  70
      0
   3

  62
      0
  51
90.0
  52
90.0
  71
      2
  49
0.5
  62
    256
   6
BYLAYER
  49
-0.5
  62
    256
   6
BYLAYER
   0
ENDSEC
   0
EOF