   0
SECTION
   2
HEADER
   9
$ACADVER
   1
AC1014
   9
$ACADMAINTVER
  70
      0
   9
$DWGCODEPAGE
   3
ANSI_1252
   9
$INSBASE
  10
0.0
  20
0.0
  30
0.0
   9
$EXTMIN
  10
-28.22109
  20
-11.64042
  30
0.0
   9
$EXTMAX
  10
74.82057
  20
57.35958
  30
0.0
   9
$LIMMIN
  10
0.0
  20
0.0
   9
$LIMMAX
  10
0.0
  20
0.0
   9
$ORTHOMODE
  70
      0
   9
$REGENMODE
  70
      1
   9
$FILLMODE
  70
      1
   9
$QTEXTMODE
  70
      0
   9
$MIRRTEXT
  70
      1
   9
$DRAGMODE
  70
      2
   9
$LTSCALE
  40
3.0
   9
$OSMODE
  70
      0
   9
$ATTMODE
  70
      1
   9
$TEXTSIZE
  40
0.2
   9
$TRACEWID
  40
0.05
   9
$TEXTSTYLE
   7
STANDARD
   9
$CLAYER
   8
0
   9
$CELTYPE
   6
CONTINUOUS
   9
$CECOLOR
  62
    256
   9
$CELTSCALE
  40
1.0
   9
$DELOBJ
  70
      1
   9
$DISPSILH
  70
      0
   9
$DIMSCALE
  40
1.0
   9
$DIMASZ
  40
0.18
   9
$DIMEXO
  40
0.0625
   9
$DIMDLI
  40
0.38
   9
$DIMRND
  40
0.0
   9
$DIMDLE
  40
0.0
   9
$DIMEXE
  40
0.18
   9
$DIMTP
  40
0.0
   9
$DIMTM
  40
0.0
   9
$DIMTXT
  40
0.18
   9
$DIMCEN
  40
0.09
   9
$DIMTSZ
  40
0.0
   9
$DIMTOL
  70
      0
   9
$DIMLIM
  70
      0
   9
$DIMTIH
  70
      1
   9
$DIMTOH
  70
      1
   9
$DIMSE1
  70
      0
   9
$DIMSE2
  70
      0
   9
$DIMTAD
  70
      0
   9
$DIMZIN
  70
      0
   9
$DIMBLK
   1

   9
$DIMASO
  70
      1
   9
$DIMSHO
  70
      1
   9
$DIMPOST
   1

   9
$DIMAPOST
   1

   9
$DIMALT
  70
      0
   9
$DIMALTD
  70
      2
   9
$DIMALTF
  40
25.4
   9
$DIMLFAC
  40
1.0
   9
$DIMTOFL
  70
      0
   9
$DIMTVP
  40
0.0
   9
$DIMTIX
  70
      0
   9
$DIMSOXD
  70
      0
   9
$DIMSAH
  70
      0
   9
$DIMBLK1
   1

   9
$DIMBLK2
   1

   9
$DIMSTYLE
   2
STANDARD
   9
$DIMCLRD
  70
      0
   9
$DIMCLRE
  70
      0
   9
$DIMCLRT
  70
      0
   9
$DIMTFAC
  40
1.0
   9
$DIMGAP
  40
0.09
   9
$DIMJUST
  70
      0
   9
$DIMSD1
  70
      0
   9
$DIMSD2
  70
      0
   9
$DIMTOLJ
  70
      1
   9
$DIMTZIN
  70
      0
   9
$DIMALTZ
  70
      0
   9
$DIMALTTZ
  70
      0
   9
$DIMFIT
  70
      3
   9
$DIMUPT
  70
      0
   9
$DIMUNIT
  70
      2
   9
$DIMDEC
  70
      4
   9
$DIMTDEC
  70
      4
   9
$DIMALTU
  70
      2
   9
$DIMALTTD
  70
      2
   9
$DIMTXSTY
   7
STANDARD
   9
$DIMAUNIT
  70
      0
   9
$LUNITS
  70
      2
   9
$LUPREC
  70
      4
   9
$SKETCHINC
  40
0.1
   9
$FILLETRAD
  40
0.0
   9
$AUNITS
  70
      0
   9
$AUPREC
  70
      0
   9
$MENU
   1
acad
   9
$ELEVATION
  40
0.0
   9
$PELEVATION
  40
0.0
   9
$THICKNESS
  40
0.0
   9
$LIMCHECK
  70
      0
   9
$BLIPMODE
  70
      1
   9
$CHAMFERA
  40
0.0
   9
$CHAMFERB
  40
0.0
   9
$CHAMFERC
  40
0.0
   9
$CHAMFERD
  40
0.0
   9
$SKPOLY
  70
      0
   9
$TDCREATE
  40
2452107.929502315
   9
$TDUPDATE
  40
2452107.929502315
   9
$TDINDWG
  40
0.0000000000
   9
$TDUSRTIMER
  40
0.0000000000
   9
$USRTIMER
  70
      1
   9
$ANGBASE
  50
0.0
   9
$ANGDIR
  70
      0
   9
$PDMODE
  70
      0
   9
$PDSIZE
  40
0.0
   9
$PLINEWID
  40
0.0
   9
$COORDS
  70
      0
   9
$SPLFRAME
  70
      0
   9
$SPLINETYPE
  70
      6
   9
$SPLINESEGS
  70
      8
   9
$ATTDIA
  70
      0
   9
$ATTREQ
  70
      1
   9
$HANDLING
  70
      1
   9
$HANDSEED
   5
910
   9
$SURFTAB1
  70
      6
   9
$SURFTAB2
  70
      6
   9
$SURFTYPE
  70
      6
   9
$SURFU
  70
      6
   9
$SURFV
  70
      6
   9
$UCSNAME
   2

   9
$UCSORG
  10
0.0
  20
0.0
  30
0.0
   9
$UCSXDIR
  10
1.0
  20
0.0
  30
0.0
   9
$UCSYDIR
  10
0.0
  20
1.0
  30
0.0
   9
$PUCSNAME
   2

   9
$PUCSORG
  10
0.0
  20
0.0
  30
0.0
   9
$PUCSXDIR
  10
1.0
  20
0.0
  30
0.0
   9
$PUCSYDIR
  10
0.0
  20
1.0
  30
0.0
   9
$USERI1
  70
      0
   9
$USERI2
  70
      0
   9
$USERI3
  70
      0
   9
$USERI4
  70
      0
   9
$USERI5
  70
      0
   9
$USERR1
  40
0.0
   9
$USERR2
  40
0.0
   9
$USERR3
  40
0.0
   9
$USERR4
  40
0.0
   9
$USERR5
  40
0.0
   9
$WORLDVIEW
  70
      1
   9
$SHADEDGE
  70
      3
   9
$SHADEDIF
  70
     70
   9
$TILEMODE
  70
      1
   9
$MAXACTVP
  70
     16
   9
$PINSBASE
  10
0.0
  20
0.0
  30
0.0
   9
$PLIMCHECK
  70
      0
   9
$PEXTMIN
  10
1.000000E+20
  20
1.000000E+20
  30
1.000000E+20
   9
$PEXTMAX
  10
-1.000000E+20
  20
-1.000000E+20
  30
-1.000000E+20
   9
$PLIMMIN
  10
0.0
  20
0.0
   9
$PLIMMAX
  10
12.0
  20
9.0
   9
$UNITMODE
  70
      0
   9
$VISRETAIN
  70
      0
   9
$PLINEGEN
  70
      1
   9
$PSLTSCALE
  70
      0
   9
$TREEDEPTH
  70
   3020
   9
$PICKSTYLE
  70
      1
   9
$CMLSTYLE
   2
STANDARD
   9
$CMLJUST
  70
      0
   9
$CMLSCALE
  40
1.0
   9
$PROXYGRAPHICS
  70
      0
   9
$MEASUREMENT
  70
      0
   0
ENDSEC
   0
SECTION
   2
CLASSES
   0
CLASS
   1
LWPOLYLINE
   2
AcDbPolyline
   3
"AutoCAD"
  90
         0
280
      0
281
      1
   0
CLASS
   1
IMAGE
   2
AcDbRasterImage
   3
ISM
  90
       127
280
      0
281
      1
   0
CLASS
   1
OLE2FRAME
   2
AcDbOle2Frame
   3
""
  90
         0
280
      0
281
      1
   0
CLASS
   1
HATCH
   2
AcDbHatch
   3
"ACAD_SEDONA"
  90
         0
280
      0
281
      1
   0
CLASS
   1
DICTIONARYVAR
   2
AcDbDictionaryVar
   3
"AutoCAD"
  90
         0
280
      0
281
      0
   0
CLASS
   1
RASTERVARIABLES
   2
AcDbRasterVariables
   3
ISM
  90
         0
280
      0
281
      0
   0
CLASS
   1
IMAGEDEF
   2
AcDbRasterImageDef
   3
ISM
  90
         0
280
      0
281
      0
   0
CLASS
   1
IMAGEDEF_REACTOR
   2
AcDbRasterImageDefReactor
   3
ISM
  90
         1
280
      0
281
      0
   0
CLASS
   1
IDBUFFER
   2
AcDbIdBuffer
   3
"Acad"
  90
         0
280
      0
281
      0
   0
CLASS
   1
SPATIAL_FILTER
   2
AcDbSpatialFilter
   3
"Acad"
  90
         0
280
      0
281
      0
   0
CLASS
   1
XRECORD
   2
AcDbXrecord
   3
"<Built In>"
  90
         0
280
      0
281
      0
   0
CLASS
   1
SORTENTSTABLE
   2
AcDbSortentsTable
   3
"AutoCAD"
  90
         0
280
      0
281
      0
   0
CLASS
   1
LAYER_INDEX
   2
AcDbLayerIndex
   3
"Acad"
  90
         0
280
      0
281
      0
   0
CLASS
   1
SPATIAL_INDEX
   2
AcDbSpatialIndex
   3
"Acad"
  90
         0
280
      0
281
      0
   0
CLASS
   1
OBJECT_PTR
   2
CAseDLPNTableRecord
   3
"ASE-LPNTableRecord"
  90
         1
280
      0
281
      0
   0
ENDSEC
   0
SECTION
   2
TABLES
   0
TABLE
   2
VPORT
   5
7
100
AcDbSymbolTable
  70
      1
   0
VPORT
   5
15
100
AcDbSymbolTableRecord
100
AcDbViewportTableRecord
   2
*ACTIVE
  70
      0
  10
0.0
  20
0.0
  11
1.0
  21
1.0
  12
23.29974
  22
22.85958
  13
0.0
  23
0.0
  14
1.0
  24
1.0
  15
0.0
  25
0.0
  16
0.0
  26
0.0
  36
1.0
  17
0.0
  27
0.0
  37
0.0
  40
69.0
  41
0.688564
  42
50.0
  43
0.0
  44
0.0
  50
0.0
  51
0.0
  71
      0
  72
    100
  73
      1
  74
      1
  75
      0
  76
      0
  77
      0
  78
      0
   0
ENDTAB
   0
TABLE
   2
LTYPE
   5
4
100
AcDbSymbolTable
  70
     13
   0
LTYPE
   5
11
100
AcDbSymbolTableRecord
100
AcDbLinetypeTableRecord
   2
BYBLOCK
  70
      0
   3

  72
     65
  73
      0
  40
0.0
   0
LTYPE
   5
12
100
AcDbSymbolTableRecord
100
AcDbLinetypeTableRecord
   2
BYLAYER
  70
      0
   3

  72
     65
  73
      0
  40
0.0
   0
LTYPE
   5
13
100
AcDbSymbolTableRecord
100
AcDbLinetypeTableRecord
   2
CONTINUOUS
  70
      0
   3
Solid line
  72
     65
  73
      0
  40
0.0
   0
LTYPE
   5
44
100
AcDbSymbolTableRecord
100
AcDbLinetypeTableRecord
   2
VECTORWORKS_DASH_01
  70
      0
   3
(unavailable)
  72
     65
  73
      2
  40
0.024948
  49
0.016632
  74
      0
  49
-0.008316
  74
      0
   0
LTYPE
   5
45
100
AcDbSymbolTableRecord
100
AcDbLinetypeTableRecord
   2
VECTORWORKS_DASH_02
  70
      0
   3
(unavailable)
  72
     65
  73
      2
  40
0.049911
  49
0.033279
  74
      0
  49
-0.016632
  74
      0
   0
LTYPE
   5
46
100
AcDbSymbolTableRecord
100
AcDbLinetypeTableRecord
   2
VECTORWORKS_DASH_03
  70
      0
   3
(unavailable)
  72
     65
  73
      4
  40
0.133087
  49
0.083191
  74
      0
  49
-0.016632
  74
      0
  49
0.016632
  74
      0
  49
-0.016632
  74
      0
   0
LTYPE
   5
47
100
AcDbSymbolTableRecord
100
AcDbLinetypeTableRecord
   2
VECTORWORKS_DASH_04
  70
      0
   3
(unavailable)
  72
     65
  73
      6
  40
0.166351
  49
0.083191
  74
      0
  49
-0.016632
  74
      0
  49
0.016632
  74
      0
  49
-0.016632
  74
      0
  49
0.016632
  74
      0
  49
-0.016632
  74
      0
   0
LTYPE
   5
48
100
AcDbSymbolTableRecord
100
AcDbLinetypeTableRecord
   2
VECTORWORKS_DASH_05
  70
      0
   3
(unavailable)
  72
     65
  73
      2
  40
0.016632
  49
0.000015
  74
      0
  49
-0.016617
  74
      0
   0
LTYPE
   5
49
100
AcDbSymbolTableRecord
100
AcDbLinetypeTableRecord
   2
VECTORWORKS_DASH_06
  70
      0
   3
(unavailable)
  72
     65
  73
      4
  40
0.066544
  49
0.033279
  74
      0
  49
-0.016632
  74
      0
  49
0.000015
  74
      0
  49
-0.016617
  74
      0
   0
LTYPE
   5
4A
100
AcDbSymbolTableRecord
100
AcDbLinetypeTableRecord
   2
VECTORWORKS_DASH_07
  70
      0
   3
(unavailable)
  72
     65
  73
      6
  40
0.083176
  49
0.033279
  74
      0
  49
-0.016632
  74
      0
  49
0.000015
  74
      0
  49
-0.016617
  74
      0
  49
0.000015
  74
      0
  49
-0.016617
  74
      0
   0
LTYPE
   5
4B
100
AcDbSymbolTableRecord
100
AcDbLinetypeTableRecord
   2
VECTORWORKS_DASH_08
  70
      0
   3
(unavailable)
  72
     65
  73
      6
  40
0.116455
  49
0.033279
  74
      0
  49
-0.016632
  74
      0
  49
0.033279
  74
      0
  49
-0.016632
  74
      0
  49
0.000015
  74
      0
  49
-0.016617
  74
      0
   0
LTYPE
   5
4C
100
AcDbSymbolTableRecord
100
AcDbLinetypeTableRecord
   2
VECTORWORKS_DASH_09
  70
      0
   3
(unavailable)
  72
     65
  73
      4
  40
1.0
  49
0.75
  74
      0
  49
-0.055557
  74
      0
  49
0.138885
  74
      0
  49
-0.055557
  74
      0
   0
LTYPE
   5
4D
100
AcDbSymbolTableRecord
100
AcDbLinetypeTableRecord
   2
VECTORWORKS_DASH_10
  70
      0
   3
(unavailable)
  72
     65
  73
      6
  40
1.1875
  49
0.75
  74
      0
  49
-0.055557
  74
      0
  49
0.138885
  74
      0
  49
-0.055557
  74
      0
  49
0.125
  74
      0
  49
-0.0625
  74
      0
   0
ENDTAB
   0
TABLE
   2
LAYER
   5
2
100
AcDbSymbolTable
  70
      6
   0
LAYER
   5
14
100
AcDbSymbolTableRecord
100
AcDbLayerTableRecord
   2
0
  70
      0
  62
      7
   6
CONTINUOUS
   0
LAYER
   5
4E
100
AcDbSymbolTableRecord
100
AcDbLayerTableRecord
   2
NONE
  70
     64
  62
      7
   6
CONTINUOUS
   0
LAYER
   5
4F
100
AcDbSymbolTableRecord
100
AcDbLayerTableRecord
   2
DIMENSION
  70
     64
  62
      7
   6
CONTINUOUS
   0
LAYER
   5
50
100
AcDbSymbolTableRecord
100
AcDbLayerTableRecord
   2
1
  70
     64
  62
      8
   6
CONTINUOUS
   0
LAYER
   5
51
100
AcDbSymbolTableRecord
100
AcDbLayerTableRecord
   2
LAYER0
  70
     64
  62
      1
   6
CONTINUOUS
   0
LAYER
   5
52
100
AcDbSymbolTableRecord
100
AcDbLayerTableRecord
   2
0
  70
     64
  62
      7
   6
CONTINUOUS
   0
ENDTAB
   0
TABLE
   2
STYLE
   5
3
100
AcDbSymbolTable
  70
      1
   0
STYLE
   5
17
100
AcDbSymbolTableRecord
100
AcDbTextStyleTableRecord
   2
STANDARD
  70
      0
  40
0.0
  41
0.6
  50
0.0
  71
      0
  42
0.0
   3
txt
   4

   0
ENDTAB
   0
TABLE
   2
VIEW
   5
5
100
AcDbSymbolTable
  70
      0
   0
ENDTAB
   0
TABLE
   2
UCS
   5
6
100
AcDbSymbolTable
  70
      0
   0
ENDTAB
   0
TABLE
   2
APPID
   5
8
100
AcDbSymbolTable
  70
      1
   0
APPID
   5
16
100
AcDbSymbolTableRecord
100
AcDbRegAppTableRecord
   2
ACAD
  70
      0
   0
ENDTAB
   0
TABLE
   2
DIMSTYLE
   5
9
100
AcDbSymbolTable
  70
      1
   0
DIMSTYLE
105
18
100
AcDbSymbolTableRecord
100
AcDbDimStyleTableRecord
   2
STANDARD
  70
      0
   3

   4

   5

   6

   7

  40
1.0
  41
0.18
  42
0.0625
  43
0.38
  44
0.18
  45
0.0
  46
0.0
  47
0.0
  48
0.0
140
0.18
141
0.09
142
0.0
143
25.4
144
1.0
145
0.0
146
1.0
147
0.09
  71
      0
  72
      0
  73
      1
  74
      1
  75
      0
  76
      0
  77
      0
  78
      0
170
      0
171
      2
172
      0
173
      0
174
      0
175
      0
176
      0
177
      0
178
      0
270
      2
271
      4
272
      4
273
      2
274
      2
340
17
275
      0
280
      0
281
      0
282
      0
283
      1
284
      0
285
      0
286
      0
287
      0
288
      0
   0
ENDTAB
   0
TABLE
   2
BLOCK_RECORD
   5
1
100
AcDbSymbolTable
  70
     39
   0
BLOCK_RECORD
   5
A
100
AcDbSymbolTableRecord
100
AcDbBlockTableRecord
   2
*MODEL_SPACE
   0
BLOCK_RECORD
   5
B
100
AcDbSymbolTableRecord
100
AcDbBlockTableRecord
   2
*PAPER_SPACE
   0
BLOCK_RECORD
   5
1D
100
AcDbSymbolTableRecord
100
AcDbBlockTableRecord
   2
*G0
   0
BLOCK_RECORD
   5
1E
100
AcDbSymbolTableRecord
100
AcDbBlockTableRecord
   2
*G1
   0
BLOCK_RECORD
   5
1F
100
AcDbSymbolTableRecord
100
AcDbBlockTableRecord
   2
*G2
   0
BLOCK_RECORD
   5
20
100
AcDbSymbolTableRecord
100
AcDbBlockTableRecord
   2
*G3
   0
BLOCK_RECORD
   5
21
100
AcDbSymbolTableRecord
100
AcDbBlockTableRecord
   2
*G4
   0
BLOCK_RECORD
   5
22
100
AcDbSymbolTableRecord
100
AcDbBlockTableRecord
   2
*G5
   0
BLOCK_RECORD
   5
23
100
AcDbSymbolTableRecord
100
AcDbBlockTableRecord
   2
*G6
   0
BLOCK_RECORD
   5
24
100
AcDbSymbolTableRecord
100
AcDbBlockTableRecord
   2
*G7
   0
BLOCK_RECORD
   5
25
100
AcDbSymbolTableRecord
100
AcDbBlockTableRecord
   2
*G8
   0
BLOCK_RECORD
   5
26
100
AcDbSymbolTableRecord
100
AcDbBlockTableRecord
   2
*G9
   0
BLOCK_RECORD
   5
27
100
AcDbSymbolTableRecord
100
AcDbBlockTableRecord
   2
*G10
   0
BLOCK_RECORD
   5
28
100
AcDbSymbolTableRecord
100
AcDbBlockTableRecord
   2
*G11
   0
BLOCK_RECORD
   5
29
100
AcDbSymbolTableRecord
100
AcDbBlockTableRecord
   2
*G12
   0
BLOCK_RECORD
   5
2A
100
AcDbSymbolTableRecord
100
AcDbBlockTableRecord
   2
*G13
   0
BLOCK_RECORD
   5
2B
100
AcDbSymbolTableRecord
100
AcDbBlockTableRecord
   2
*G14
   0
BLOCK_RECORD
   5
2C
100
AcDbSymbolTableRecord
100
AcDbBlockTableRecord
   2
*G15
   0
BLOCK_RECORD
   5
2D
100
AcDbSymbolTableRecord
100
AcDbBlockTableRecord
   2
*G16
   0
BLOCK_RECORD
   5
2E
100
AcDbSymbolTableRecord
100
AcDbBlockTableRecord
   2
*G17
   0
BLOCK_RECORD
   5
2F
100
AcDbSymbolTableRecord
100
AcDbBlockTableRecord
   2
*G18
   0
BLOCK_RECORD
   5
30
100
AcDbSymbolTableRecord
100
AcDbBlockTableRecord
   2
*G19
   0
BLOCK_RECORD
   5
31
100
AcDbSymbolTableRecord
100
AcDbBlockTableRecord
   2
*G20
   0
BLOCK_RECORD
   5
32
100
AcDbSymbolTableRecord
100
AcDbBlockTableRecord
   2
*G21
   0
BLOCK_RECORD
   5
33
100
AcDbSymbolTableRecord
100
AcDbBlockTableRecord
   2
*G22
   0
BLOCK_RECORD
   5
34
100
AcDbSymbolTableRecord
100
AcDbBlockTableRecord
   2
*G23
   0
BLOCK_RECORD
   5
35
100
AcDbSymbolTableRecord
100
AcDbBlockTableRecord
   2
*G24
   0
BLOCK_RECORD
   5
36
100
AcDbSymbolTableRecord
100
AcDbBlockTableRecord
   2
*G25
   0
BLOCK_RECORD
   5
37
100
AcDbSymbolTableRecord
100
AcDbBlockTableRecord
   2
*G26
   0
BLOCK_RECORD
   5
38
100
AcDbSymbolTableRecord
100
AcDbBlockTableRecord
   2
*G27
   0
BLOCK_RECORD
   5
39
100
AcDbSymbolTableRecord
100
AcDbBlockTableRecord
   2
*G28
   0
BLOCK_RECORD
   5
3A
100
AcDbSymbolTableRecord
100
AcDbBlockTableRecord
   2
*G29
   0
BLOCK_RECORD
   5
3B
100
AcDbSymbolTableRecord
100
AcDbBlockTableRecord
   2
*G30
   0
BLOCK_RECORD
   5
3C
100
AcDbSymbolTableRecord
100
AcDbBlockTableRecord
   2
*G31
   0
BLOCK_RECORD
   5
3D
100
AcDbSymbolTableRecord
100
AcDbBlockTableRecord
   2
*G32
   0
BLOCK_RECORD
   5
3E
100
AcDbSymbolTableRecord
100
AcDbBlockTableRecord
   2
*G33
   0
BLOCK_RECORD
   5
3F
100
AcDbSymbolTableRecord
100
AcDbBlockTableRecord
   2
*G34
   0
BLOCK_RECORD
   5
40
100
AcDbSymbolTableRecord
100
AcDbBlockTableRecord
   2
*G35
   0
BLOCK_RECORD
   5
41
100
AcDbSymbolTableRecord
100
AcDbBlockTableRecord
   2
*G36
   0
BLOCK_RECORD
   5
42
100
AcDbSymbolTableRecord
100
AcDbBlockTableRecord
   2
*G37
   0
BLOCK_RECORD
   5
43
100
AcDbSymbolTableRecord
100
AcDbBlockTableRecord
   2
*G38
   0
ENDTAB
   0
ENDSEC
   0
SECTION
   2
BLOCKS
   0
BLOCK
   5
D
100
AcDbEntity
   8
0
100
AcDbBlockBegin
   2
*MODEL_SPACE
  70
      0
  10
0.0
  20
0.0
  30
0.0
   3
*MODEL_SPACE
   1

   0
ENDBLK
   5
E
100
AcDbEntity
   8
0
100
AcDbBlockEnd
   0
BLOCK
   5
F
100
AcDbEntity
  67
      1
   8
0
100
AcDbBlockBegin
   2
*PAPER_SPACE
  70
      0
  10
0.0
  20
0.0
  30
0.0
   3
*PAPER_SPACE
   1

   0
ENDBLK
   5
10
100
AcDbEntity
  67
      1
   8
0
100
AcDbBlockEnd
   0
BLOCK
   5
53
100
AcDbEntity
   8
NONE
100
AcDbBlockBegin
   2
*G0
  70
      1
  10
0.0
  20
0.0
  30
0.0
   3

   1

   0
POLYLINE
   5
54
100
AcDbEntity
   8
LAYER0
   6
CONTINUOUS
  62
      9
100
AcDb2dPolyline
  66
      1
  10
0.0
  20
0.0
  30
0.0
  75
      5
   0
VERTEX
   5
55
100
AcDbEntity
   8
LAYER0
   6
CONTINUOUS
  62
      9
100
AcDbVertex
100
AcDb2dVertex
  10
7.75401
  20
-4.7451
  30
0.0
   0
VERTEX
   5
56
100
AcDbEntity
   8
LAYER0
   6
CONTINUOUS
  62
      9
100
AcDbVertex
100
AcDb2dVertex
  10
7.87901
  20
-4.5451
  30
0.0
   0
VERTEX
   5
57
100
AcDbEntity
   8
LAYER0
   6
CONTINUOUS
  62
      9
100
AcDbVertex
100
AcDb2dVertex
  10
7.87901
  20
-3.9451
  30
0.0
   0
VERTEX
   5
58
100
AcDbEntity
   8
LAYER0
   6
CONTINUOUS
  62
      9
100
AcDbVertex
100
AcDb2dVertex
  10
7.78526
  20
-3.79923
  30
0.0
   0
VERTEX
   5
59
100
AcDbEntity
   8
LAYER0
   6
CONTINUOUS
  62
      9
100
AcDbVertex
100
AcDb2dVertex
  10
7.75401
  20
-3.85336
  30
0.0
   0
SEQEND
   5
5A
100
AcDbEntity
   8
LAYER0
   6
CONTINUOUS
   0
POLYLINE
   5
5B
100
AcDbEntity
   8
LAYER0
   6
CONTINUOUS
  62
      9
100
AcDb2dPolyline
  66
      1
  10
0.0
  20
0.0
  30
0.0
  75
      5
   0
VERTEX
   5
5C
100
AcDbEntity
   8
LAYER0
   6
CONTINUOUS
  62
      9
100
AcDbVertex
100
AcDb2dVertex
  10
-11.05849
  20
-3.7451
  30
0.0
   0
VERTEX
   5
5D
100
AcDbEntity
   8
LAYER0
   6
CONTINUOUS
  62
      9
100
AcDbVertex
100
AcDb2dVertex
  10
-11.12099
  20
-3.85335
  30
0.0
   0
VERTEX
   5
5E
100
AcDbEntity
   8
LAYER0
   6
CONTINUOUS
  62
      9
100
AcDbVertex
100
AcDb2dVertex
  10
-11.12099
  20
-4.63684
  30
0.0
   0
VERTEX
   5
5F
100
AcDbEntity
   8
LAYER0
   6
CONTINUOUS
  62
      9
100
AcDbVertex
100
AcDb2dVertex
  10
-11.08974
  20
-4.69097
  30
0.0
   0
VERTEX
   5
60
100
AcDbEntity
   8
LAYER0
   6
CONTINUOUS
  62
      9
100
AcDbVertex
100
AcDb2dVertex
  10
-11.05849
  20
-4.63684
  30
0.0
   0
SEQEND
   5
61
100
AcDbEntity
   8
LAYER0
   6
CONTINUOUS
   0
POLYLINE
   5
62
100
AcDbEntity
   8
LAYER0
   6
CONTINUOUS
  62
      9
100
AcDb2dPolyline
  66
      1
  10
0.0
  20
0.0
  30
0.0
  70
      1
  75
      5
   0
VERTEX
   5
63
100
AcDbEntity
   8
LAYER0
   6
CONTINUOUS
  62
      9
100
AcDbVertex
100
AcDb2dVertex
  10
7.78526
  20
-3.79923
  30
0.0
   0
VERTEX
   5
64
100
AcDbEntity
   8
LAYER0
   6
CONTINUOUS
  62
      9
100
AcDbVertex
100
AcDb2dVertex
  10
7.78526
  20
-4.2451
  30
0.0
   0
VERTEX
   5
65
100
AcDbEntity
   8
LAYER0
   6
CONTINUOUS
  62
      9
100
AcDbVertex
100
AcDb2dVertex
  10
7.75401
  20
-3.85335
  30
0.0
   0
VERTEX
   5
66
100
AcDbEntity
   8
LAYER0
   6
CONTINUOUS
  62
      9
100
AcDbVertex
100
AcDb2dVertex
  10
7.78526
  20
-3.79922
  30
0.0
   0
SEQEND
   5
67
100
AcDbEntity
   8
LAYER0
   6
CONTINUOUS
   0
POLYLINE
   5
68
100
AcDbEntity
   8
LAYER0
   6
CONTINUOUS
  62
      9
100
AcDb2dPolyline
  66
      1
  10
0.0
  20
0.0
  30
0.0
  75
      5
   0
VERTEX
   5
69
100
AcDbEntity
   8
LAYER0
   6
CONTINUOUS
  62
      9
100
AcDbVertex
100
AcDb2dVertex
  10
7.75401
  20
-3.85335
  30
0.0
   0
VERTEX
   5
6A
100
AcDbEntity
   8
LAYER0
   6
CONTINUOUS
  62
      9
100
AcDbVertex
100
AcDb2dVertex
  10
7.69151
  20
-3.7451
  30
0.0
   0
VERTEX
   5
6B
100
AcDbEntity
   8
LAYER0
   6
CONTINUOUS
  62
      9
100
AcDbVertex
100
AcDb2dVertex
  10
7.75401
  20
-4.7451
  30
0.0
   0
SEQEND
   5
6C
100
AcDbEntity
   8
LAYER0
   6
CONTINUOUS
   0
POLYLINE
   5
6D
100
AcDbEntity
   8
LAYER0
   6
CONTINUOUS
  62
      9
100
AcDb2dPolyline
  66
      1
  10
0.0
  20
0.0
  30
0.0
  70
      1
  75
      5
   0
VERTEX
   5
6E
100
AcDbEntity
   8
LAYER0
   6
CONTINUOUS
  62
      9
100
AcDbVertex
100
AcDb2dVertex
  10
7.75401
  20
-4.7451
  30
0.0
   0
VERTEX
   5
6F
100
AcDbEntity
   8
LAYER0
   6
CONTINUOUS
  62
      9
100
AcDbVertex
100
AcDb2dVertex
  10
7.69151
  20
-4.63685
  30
0.0
   0
VERTEX
   5
70
100
AcDbEntity
   8
LAYER0
   6
CONTINUOUS
  62
      9
100
AcDbVertex
100
AcDb2dVertex
  10
7.62901
  20
-3.85336
  30
0.0
   0
VERTEX
   5
71
100
AcDbEntity
   8
LAYER0
   6
CONTINUOUS
  62
      9
100
AcDbVertex
100
AcDb2dVertex
  10
7.69151
  20
-3.74511
  30
0.0
   0
SEQEND
   5
72
100
AcDbEntity
   8
LAYER0
   6
CONTINUOUS
   0
POLYLINE
   5
73
100
AcDbEntity
   8
LAYER0
   6
CONTINUOUS
  62
      9
100
AcDb2dPolyline
  66
      1
  10
0.0
  20
0.0
  30
0.0
  70
      1
  75
      5
   0
VERTEX
   5
74
100
AcDbEntity
   8
LAYER0
   6
CONTINUOUS
  62
      9
100
AcDbVertex
100
AcDb2dVertex
  10
7.62901
  20
-3.85336
  30
0.0
   0
VERTEX
   5
75
100
AcDbEntity
   8
LAYER0
   6
CONTINUOUS
  62
      9
100
AcDbVertex
100
AcDb2dVertex
  10
7.56651
  20
-3.74511
  30
0.0
   0
VERTEX
   5
76
100
AcDbEntity
   8
LAYER0
   6
CONTINUOUS
  62
      9
100
AcDbVertex
100
AcDb2dVertex
  10
7.62901
  20
-4.74511
  30
0.0
   0
VERTEX
   5
77
100
AcDbEntity
   8
LAYER0
   6
CONTINUOUS
  62
      9
100
AcDbVertex
100
AcDb2dVertex
  10
7.69151
  20
-4.63686
  30
0.0
   0
SEQEND
   5
78
100
AcDbEntity
   8
LAYER0
   6
CONTINUOUS
   0
POLYLINE
   5
79
100
AcDbEntity
   8
LAYER0
   6
CONTINUOUS
  62
      9
100
AcDb2dPolyline
  66
      1
  10
0.0
  20
0.0
  30
0.0
  70
      1
  75
      5
   0
VERTEX
   5
7A
100
AcDbEntity
   8
LAYER0
   6
CONTINUOUS
  62
      9
100
AcDbVertex
100
AcDb2dVertex
  10
7.62901
  20
-4.74511
  30
0.0
   0
VERTEX
   5
7B
100
AcDbEntity
   8
LAYER0
   6
CONTINUOUS
  62
      9
100
AcDbVertex
100
AcDb2dVertex
  10
7.56651
  20
-4.63686
  30
0.0
   0
VERTEX
   5
7C
100
AcDbEntity
   8
LAYER0
   6
CONTINUOUS
  62
      9
100
AcDbVertex
100
AcDb2dVertex
  10
7.50401
  20
-3.85337
  30
0.0
   0
VERTEX
   5
7D
100
AcDbEntity
   8
LAYER0
   6
CONTINUOUS
  62
      9
100
AcDbVertex
100
AcDb2dVertex
  10
7.56651
  20
-3.74512
  30
0.0
   0
SEQEND
   5
7E
100
AcDbEntity
   8
LAYER0
   6
CONTINUOUS
   0
POLYLINE
   5
7F
100
AcDbEntity
   8
LAYER0
   6
CONTINUOUS
  62
      9
100
AcDb2dPolyline
  66
      1
  10
0.0
  20
0.0
  30
0.0
  70
      1
  75
      5
   0
VERTEX
   5
80
100
AcDbEntity
   8
LAYER0
   6
CONTINUOUS
  62
      9
100
AcDbVertex
100
AcDb2dVertex
  10
7.50401
  20
-3.85337
  30
0.0
   0
VERTEX
   5
81
100
AcDbEntity
   8
LAYER0
   6
CONTINUOUS
  62
      9
100
AcDbVertex
100
AcDb2dVertex
  10
7.44151
  20
-3.74512
  30
0.0
   0
VERTEX
   5
82
100
AcDbEntity
   8
LAYER0
   6
CONTINUOUS
  62
      9
100
AcDbVertex
100
AcDb2dVertex
  10
7.50401
  20
-4.74512
  30
0.0
   0
VERTEX
   5
83
100
AcDbEntity
   8
LAYER0
   6
CONTINUOUS
  62
      9
100
AcDbVertex
100
AcDb2dVertex
  10
7.56651
  20
-4.63687
  30
0.0
   0
SEQEND
   5
84
100
AcDbEntity
   8
LAYER0
   6
CONTINUOUS
   0
POLYLINE
   5
85
100
AcDbEntity
   8
LAYER0
   6
CONTINUOUS
  62
      9
100
AcDb2dPolyline
  66
      1
  10
0.0
  20
0.0
  30
0.0
  70
      1
  75
      5
   0
VERTEX
   5
86
100
AcDbEntity
   8
LAYER0
   6
CONTINUOUS
  62
      9
100
AcDbVertex
100
AcDb2dVertex
  10
7.50401
  20
-4.74512
  30
0.0
   0
VERTEX
   5
87
100
AcDbEntity
   8
LAYER0
   6
CONTINUOUS
  62
      9
100
AcDbVertex
100
AcDb2dVertex
  10
7.44151
  20
-4.63687
  30
0.0
   0
VERTEX
   5
88
100
AcDbEntity
   8
LAYER0
   6
CONTINUOUS
  62
      9
100
AcDbVertex
100
AcDb2dVertex
  10
7.37901
  20
-3.85338
  30
0.0
   0
VERTEX
   5
89
100
AcDbEntity
   8
LAYER0
   6
CONTINUOUS
  62
      9
100
AcDbVertex
100
AcDb2dVertex
  10
7.44151
  20
-3.74513
  30
0.0
   0
SEQEND
   5
8A
100
AcDbEntity
   8
LAYER0
   6
CONTINUOUS
   0
POLYLINE
   5
8B
100
AcDbEntity
   8
LAYER0
   6
CONTINUOUS
  62
      9
100
AcDb2dPolyline
  66
      1
  10
0.0
  20
0.0
  30
0.0
  70
      1
  75
      5
   0
VERTEX
   5
8C
100
AcDbEntity
   8
LAYER0
   6
CONTINUOUS
  62
      9
100
AcDbVertex
100
AcDb2dVertex
  10
7.37901
  20
-3.85338
  30
0.0
   0
VERTEX
   5
8D
100
AcDbEntity
   8
LAYER0
   6
CONTINUOUS
  62
      9
100
AcDbVertex
100
AcDb2dVertex
  10
7.31651
  20
-3.74513
  30
0.0
   0
VERTEX
   5
8E
100
AcDbEntity
   8
LAYER0
   6
CONTINUOUS
  62
      9
100
AcDbVertex
100
AcDb2dVertex
  10
7.37901
  20
-4.74513
  30
0.0
   0
VERTEX
   5
8F
100
AcDbEntity
   8
LAYER0
   6
CONTINUOUS
  62
      9
100
AcDbVertex
100
AcDb2dVertex
  10
7.44151
  20
-4.63688
  30
0.0
   0
SEQEND
   5
90
100
AcDbEntity
   8
LAYER0
   6
CONTINUOUS
   0
POLYLINE
   5
91
100
AcDbEntity
   8
LAYER0
   6
CONTINUOUS
  62
      9
100
AcDb2dPolyline
  66
      1
  10
0.0
  20
0.0
  30
0.0
  70
      1
  75
      5
   0
VERTEX
   5
92
100
AcDbEntity
   8
LAYER0
   6
CONTINUOUS
  62
      9
100
AcDbVertex
100
AcDb2dVertex
  10
7.37901
  20
-4.74513
  30
0.0
   0
VERTEX
   5
93
100
AcDbEntity
   8
LAYER0
   6
CONTINUOUS
  62
      9
100
AcDbVertex
100
AcDb2dVertex
  10
7.31651
  20
-4.63688
  30
0.0
   0
VERTEX
   5
94
100
AcDbEntity
   8
LAYER0
   6
CONTINUOUS
  62
      9
100
AcDbVertex
100
AcDb2dVertex
  10
7.25401
  20
-3.85339
  30
0.0
   0
VERTEX
   5
95
100
AcDbEntity
   8
LAYER0
   6
CONTINUOUS
  62
      9
100
AcDbVertex
100
AcDb2dVertex
  10
7.31651
  20
-3.74514
  30
0.0
   0
SEQEND
   5
96
100
AcDbEntity
   8
LAYER0
   6
CONTINUOUS
   0
POLYLINE
   5
97
100
AcDbEntity
   8
LAYER0
   6
CONTINUOUS
  62
      9
100
AcDb2dPolyline
  66
      1
  10
0.0
  20
0.0
  30
0.0
  70
      1
  75
      5
   0
VERTEX
   5
98
100
AcDbEntity
   8
LAYER0
   6
CONTINUOUS
  62
      9
100
AcDbVertex
100
AcDb2dVertex
  10
7.25401
  20
-3.85339
  30
0.0
   0
VERTEX
   5
99
100
AcDbEntity
   8
LAYER0
   6
CONTINUOUS
  62
      9
100
AcDbVertex
100
AcDb2dVertex
  10
7.19151
  20
-3.74514
  30
0.0
   0
VERTEX
   5
9A
100
AcDbEntity
   8
LAYER0
   6
CONTINUOUS
  62
      9
100
AcDbVertex
100
AcDb2dVertex
  10
7.25401
  20
-4.74514
  30
0.0
   0
VERTEX
   5
9B
100
AcDbEntity
   8
LAYER0
   6
CONTINUOUS
  62
      9
100
AcDbVertex
100
AcDb2dVertex
  10
7.31651
  20
-4.63689
  30
0.0
   0
SEQEND
   5
9C
100
AcDbEntity
   8
LAYER0
   6
CONTINUOUS
   0
POLYLINE
   5
9D
100
AcDbEntity
   8
LAYER0
   6
CONTINUOUS
  62
      9
100
AcDb2dPolyline
  66
      1
  10
0.0
  20
0.0
  30
0.0
  70
      1
  75
      5
   0
VERTEX
   5
9E
100
AcDbEntity
   8
LAYER0
   6
CONTINUOUS
  62
      9
100
AcDbVertex
100
AcDb2dVertex
  10
7.25401
  20
-4.74514
  30
0.0
   0
VERTEX
   5
9F
100
AcDbEntity
   8
LAYER0
   6
CONTINUOUS
  62
      9
100
AcDbVertex
100
AcDb2dVertex
  10
7.19151
  20
-4.63689
  30
0.0
   0
VERTEX
   5
A0
100
AcDbEntity
   8
LAYER0
   6
CONTINUOUS
  62
      9
100
AcDbVertex
100
AcDb2dVertex
  10
7.12901
  20
-3.8534
  30
0.0
   0
VERTEX
   5
A1
100
AcDbEntity
   8
LAYER0
   6
CONTINUOUS
  62
      9
100
AcDbVertex
100
AcDb2dVertex
  10
7.19151
  20
-3.74515
  30
0.0
   0
SEQEND
   5
A2
100
AcDbEntity
   8
LAYER0
   6
CONTINUOUS
   0
POLYLINE
   5
A3
100
AcDbEntity
   8
LAYER0
   6
CONTINUOUS
  62
      9
100
AcDb2dPolyline
  66
      1
  10
0.0
  20
0.0
  30
0.0
  70
      1
  75
      5
   0
VERTEX
   5
A4
100
AcDbEntity
   8
LAYER0
   6
CONTINUOUS
  62
      9
100
AcDbVertex
100
AcDb2dVertex
  10
7.12901
  20
-3.8534
  30
0.0
   0
VERTEX
   5
A5
100
AcDbEntity
   8
LAYER0
   6
CONTINUOUS
  62
      9
100
AcDbVertex
100
AcDb2dVertex
  10
7.06651
  20
-3.74515
  30
0.0
   0
VERTEX
   5
A6
100
AcDbEntity
   8
LAYER0
   6
CONTINUOUS
  62
      9
100
AcDbVertex
100
AcDb2dVertex
  10
7.12901
  20
-4.74515
  30
0.0
   0
VERTEX
   5
A7
100
AcDbEntity
   8
LAYER0
   6
CONTINUOUS
  62
      9
100
AcDbVertex
100
AcDb2dVertex
  10
7.19151
  20
-4.6369
  30
0.0
   0
SEQEND
   5
A8
100
AcDbEntity
   8
LAYER0
   6
CONTINUOUS
   0
POLYLINE
   5
A9
100
AcDbEntity
   8
LAYER0
   6
CONTINUOUS
  62
      9
100
AcDb2dPolyline
  66
      1
  10
0.0
  20
0.0
  30
0.0
  70
      1
  75
      5
   0
VERTEX
   5
AA
100
AcDbEntity
   8
LAYER0
   6
CONTINUOUS
  62
      9
100
AcDbVertex
100
AcDb2dVertex
  10
7.12901
  20
-4.74515
  30
0.0
   0
VERTEX
   5
AB
100
AcDbEntity
   8
LAYER0
   6
CONTINUOUS
  62
      9
100
AcDbVertex
100
AcDb2dVertex
  10
7.06651
  20
-4.6369
  30
0.0
   0
VERTEX
   5
AC
100
AcDbEntity
   8
LAYER0
   6
CONTINUOUS
  62
      9
100
AcDbVertex
100
AcDb2dVertex
  10
7.00401
  20
-3.85341
  30
0.0
   0
VERTEX
   5
AD
100
AcDbEntity
   8
LAYER0
   6
CONTINUOUS
  62
      9
100
AcDbVertex
100
AcDb2dVertex
  10
7.06651
  20
-3.74516
  30
0.0
   0
SEQEND
   5
AE
100
AcDbEntity
   8
LAYER0
   6
CONTINUOUS
   0
POLYLINE
   5
AF
100
AcDbEntity
   8
LAYER0
   6
CONTINUOUS
  62
      9
100
AcDb2dPolyline
  66
      1
  10
0.0
  20
0.0
  30
0.0
  70
      1
  75
      5
   0
VERTEX
   5
B0
100
AcDbEntity
   8
LAYER0
   6
CONTINUOUS
  62
      9
100
AcDbVertex
100
AcDb2dVertex
  10
7.00401
  20
-3.85341
  30
0.0
   0
VERTEX
   5
B1
100
AcDbEntity
   8
LAYER0
   6
CONTINUOUS
  62
      9
100
AcDbVertex
100
AcDb2dVertex
  10
6.94151
  20
-3.74516
  30
0.0
   0
VERTEX
   5
B2
100
AcDbEntity
   8
LAYER0
   6
CONTINUOUS
  62
      9
100
AcDbVertex
100
AcDb2dVertex
  10
7.00401
  20
-4.74516
  30
0.0
   0
VERTEX
   5
B3
100
AcDbEntity
   8
LAYER0
   6
CONTINUOUS
  62
      9
100
AcDbVertex
100
AcDb2dVertex
  10
7.06651
  20
-4.63691
  30
0.0
   0
SEQEND
   5
B4
100
AcDbEntity
   8
LAYER0
   6
CONTINUOUS
   0
POLYLINE
   5
B5
100
AcDbEntity
   8
LAYER0
   6
CONTINUOUS
  62
      9
100
AcDb2dPolyline
  66
      1
  10
0.0
  20
0.0
  30
0.0
  70
      1
  75
      5
   0
VERTEX
   5
B6
100
AcDbEntity
   8
LAYER0
   6
CONTINUOUS
  62
      9
100
AcDbVertex
100
AcDb2dVertex
  10
7.00401
  20
-4.74516
  30
0.0
   0
VERTEX
   5
B7
100
AcDbEntity
   8
LAYER0
   6
CONTINUOUS
  62
      9
100
AcDbVertex
100
AcDb2dVertex
  10
6.94151
  20
-4.63691
  30
0.0
   0
VERTEX
   5
B8
100
AcDbEntity
   8
LAYER0
   6
CONTINUOUS
  62
      9
100
AcDbVertex
100
AcDb2dVertex
  10
6.87901
  20
-3.85342
  30
0.0
   0
VERTEX
   5
B9
100
AcDbEntity
   8
LAYER0
   6
CONTINUOUS
  62
      9
100
AcDbVertex
100
AcDb2dVertex
  10
6.94151
  20
-3.74517
  30
0.0
   0
SEQEND
   5
BA
100
AcDbEntity
   8
LAYER0
   6
CONTINUOUS
   0
POLYLINE
   5
BB
100
AcDbEntity
   8
LAYER0
   6
CONTINUOUS
  62
      9
100
AcDb2dPolyline
  66
      1
  10
0.0
  20
0.0
  30
0.0
  70
      1
  75
      5
   0
VERTEX
   5
BC
100
AcDbEntity
   8
LAYER0
   6
CONTINUOUS
  62
      9
100
AcDbVertex
100
AcDb2dVertex
  10
6.87901
  20
-3.85342
  30
0.0
   0
VERTEX
   5
BD
100
AcDbEntity
   8
LAYER0
   6
CONTINUOUS
  62
      9
100
AcDbVertex
100
AcDb2dVertex
  10
6.81651
  20
-3.74517
  30
0.0
   0
VERTEX
   5
BE
100
AcDbEntity
   8
LAYER0
   6
CONTINUOUS
  62
      9
100
AcDbVertex
100
AcDb2dVertex
  10
6.87901
  20
-4.74517
  30
0.0
   0
VERTEX
   5
BF
100
AcDbEntity
   8
LAYER0
   6
CONTINUOUS
  62
      9
100
AcDbVertex
100
AcDb2dVertex
  10
6.94151
  20
-4.63692
  30
0.0
   0
SEQEND
   5
C0
100
AcDbEntity
   8
LAYER0
   6
CONTINUOUS
   0
POLYLINE
   5
C1
100
AcDbEntity
   8
LAYER0
   6
CONTINUOUS
  62
      9
100
AcDb2dPolyline
  66
      1
  10
0.0
  20
0.0
  30
0.0
  70
      1
  75
      5
   0
VERTEX
   5
C2
100
AcDbEntity
   8
LAYER0
   6
CONTINUOUS
  62
      9
100
AcDbVertex
100
AcDb2dVertex
  10
6.87901
  20
-4.74517
  30
0.0
   0
VERTEX
   5
C3
100
AcDbEntity
   8
LAYER0
   6
CONTINUOUS
  62
      9
100
AcDbVertex
100
AcDb2dVertex
  10
6.81651
  20
-4.63692
  30
0.0
   0
VERTEX
   5
C4
100
AcDbEntity
   8
LAYER0
   6
CONTINUOUS
  62
      9
100
AcDbVertex
100
AcDb2dVertex
  10
6.75401
  20
-3.85343
  30
0.0
   0
VERTEX
   5
C5
100
AcDbEntity
   8
LAYER0
   6
CONTINUOUS
  62
      9
100
AcDbVertex
100
AcDb2dVertex
  10
6.81651
  20
-3.74518
  30
0.0
   0
SEQEND
   5
C6
100
AcDbEntity
   8
LAYER0
   6
CONTINUOUS
   0
POLYLINE
   5
C7
100
AcDbEntity
   8
LAYER0
   6
CONTINUOUS
  62
      9
100
AcDb2dPolyline
  66
      1
  10
0.0
  20
0.0
  30
0.0
  70
      1
  75
      5
   0
VERTEX
   5
C8
100
AcDbEntity
   8
LAYER0
   6
CONTINUOUS
  62
      9
100
AcDbVertex
100
AcDb2dVertex
  10
6.75401
  20
-3.85343
  30
0.0
   0
VERTEX
   5
C9
100
AcDbEntity
   8
LAYER0
   6
CONTINUOUS
  62
      9
100
AcDbVertex
100
AcDb2dVertex
  10
6.69151
  20
-3.74518
  30
0.0
   0
VERTEX
   5
CA
100
AcDbEntity
   8
LAYER0
   6
CONTINUOUS
  62
      9
100
AcDbVertex
100
AcDb2dVertex
  10
6.75401
  20
-4.74518
  30
0.0
   0
VERTEX
   5
CB
100
AcDbEntity
   8
LAYER0
   6
CONTINUOUS
  62
      9
100
AcDbVertex
100
AcDb2dVertex
  10
6.81651
  20
-4.63693
  30
0.0
   0
SEQEND
   5
CC
100
AcDbEntity
   8
LAYER0
   6
CONTINUOUS
   0
POLYLINE
   5
CD
100
AcDbEntity
   8
LAYER0
   6
CONTINUOUS
  62
      9
100
AcDb2dPolyline
  66
      1
  10
0.0
  20
0.0
  30
0.0
  70
      1
  75
      5
   0
VERTEX
   5
CE
100
AcDbEntity
   8
LAYER0
   6
CONTINUOUS
  62
      9
100
AcDbVertex
100
AcDb2dVertex
  10
6.75401
  20
-4.74518
  30
0.0
   0
VERTEX
   5
CF
100
AcDbEntity
   8
LAYER0
   6
CONTINUOUS
  62
      9
100
AcDbVertex
100
AcDb2dVertex
  10
6.69151
  20
-4.63693
  30
0.0
   0
VERTEX
   5
D0
100
AcDbEntity
   8
LAYER0
   6
CONTINUOUS
  62
      9
100
AcDbVertex
100
AcDb2dVertex
  10
6.62901
  20
-3.85344
  30
0.0
   0
VERTEX
   5
D1
100
AcDbEntity
   8
LAYER0
   6
CONTINUOUS
  62
      9
100
AcDbVertex
100
AcDb2dVertex
  10
6.69151
  20
-3.74519
  30
0.0
   0
SEQEND
   5
D2
100
AcDbEntity
   8
LAYER0
   6
CONTINUOUS
   0
POLYLINE
   5
D3
100
AcDbEntity
   8
LAYER0
   6
CONTINUOUS
  62
      9
100
AcDb2dPolyline
  66
      1
  10
0.0
  20
0.0
  30
0.0
  70
      1
  75
      5
   0
VERTEX
   5
D4
100
AcDbEntity
   8
LAYER0
   6
CONTINUOUS
  62
      9
100
AcDbVertex
100
AcDb2dVertex
  10
6.62901
  20
-3.85344
  30
0.0
   0
VERTEX
   5
D5
100
AcDbEntity
   8
LAYER0
   6
CONTINUOUS
  62
      9
100
AcDbVertex
100
AcDb2dVertex
  10
6.56651
  20
-3.74519
  30
0.0
   0
VERTEX
   5
D6
100
AcDbEntity
   8
LAYER0
   6
CONTINUOUS
  62
      9
100
AcDbVertex
100
AcDb2dVertex
  10
6.62901
  20
-4.74519
  30
0.0
   0
VERTEX
   5
D7
100
AcDbEntity
   8
LAYER0
   6
CONTINUOUS
  62
      9
100
AcDbVertex
100
AcDb2dVertex
  10
6.69151
  20
-4.63694
  30
0.0
   0
SEQEND
   5
D8
100
AcDbEntity
   8
LAYER0
   6
CONTINUOUS
   0
POLYLINE
   5
D9
100
AcDbEntity
   8
LAYER0
   6
CONTINUOUS
  62
      9
100
AcDb2dPolyline
  66
      1
  10
0.0
  20
0.0
  30
0.0
  70
      1
  75
      5
   0
VERTEX
   5
DA
100
AcDbEntity
   8
LAYER0
   6
CONTINUOUS
  62
      9
100
AcDbVertex
100
AcDb2dVertex
  10
6.62901
  20
-4.74519
  30
0.0
   0
VERTEX
   5
DB
100
AcDbEntity
   8
LAYER0
   6
CONTINUOUS
  62
      9
100
AcDbVertex
100
AcDb2dVertex
  10
6.56651
  20
-4.63694
  30
0.0
   0
VERTEX
   5
DC
100
AcDbEntity
   8
LAYER0
   6
CONTINUOUS
  62
      9
100
AcDbVertex
100
AcDb2dVertex
  10
6.50401
  20
-3.85345
  30
0.0
   0
VERTEX
   5
DD
100
AcDbEntity
   8
LAYER0
   6
CONTINUOUS
  62
      9
100
AcDbVertex
100
AcDb2dVertex
  10
6.56651
  20
-3.7452
  30
0.0
   0
SEQEND
   5
DE
100
AcDbEntity
   8
LAYER0
   6
CONTINUOUS
   0
POLYLINE
   5
DF
100
AcDbEntity
   8
LAYER0
   6
CONTINUOUS
  62
      9
100
AcDb2dPolyline
  66
      1
  10
0.0
  20
0.0
  30
0.0
  70
      1
  75
      5
   0
VERTEX
   5
E0
100
AcDbEntity
   8
LAYER0
   6
CONTINUOUS
  62
      9
100
AcDbVertex
100
AcDb2dVertex
  10
6.50401
  20
-3.85345
  30
0.0
   0
VERTEX
   5
E1
100
AcDbEntity
   8
LAYER0
   6
CONTINUOUS
  62
      9
100
AcDbVertex
100
AcDb2dVertex
  10
6.44151
  20
-3.7452
  30
0.0
   0
VERTEX
   5
E2
100
AcDbEntity
   8
LAYER0
   6
CONTINUOUS
  62
      9
100
AcDbVertex
100
AcDb2dVertex
  10
6.50401
  20
-4.7452
  30
0.0
   0
VERTEX
   5
E3
100
AcDbEntity
   8
LAYER0
   6
CONTINUOUS
  62
      9
100
AcDbVertex
100
AcDb2dVertex
  10
6.56651
  20
-4.63695
  30
0.0
   0
SEQEND
   5
E4
100
AcDbEntity
   8
LAYER0
   6
CONTINUOUS
   0
POLYLINE
   5
E5
100
AcDbEntity
   8
LAYER0
   6
CONTINUOUS
  62
      9
100
AcDb2dPolyline
  66
      1
  10
0.0
  20
0.0
  30
0.0
  70
      1
  75
      5
   0
VERTEX
   5
E6
100
AcDbEntity
   8
LAYER0
   6
CONTINUOUS
  62
      9
100
AcDbVertex
100
AcDb2dVertex
  10
6.50401
  20
-4.7452
  30
0.0
   0
VERTEX
   5
E7
100
AcDbEntity
   8
LAYER0
   6
CONTINUOUS
  62
      9
100
AcDbVertex
100
AcDb2dVertex
  10
6.44151
  20
-4.63695
  30
0.0
   0
VERTEX
   5
E8
100
AcDbEntity
   8
LAYER0
   6
CONTINUOUS
  62
      9
100
AcDbVertex
100
AcDb2dVertex
  10
6.37901
  20
-3.85346
  30
0.0
   0
VERTEX
   5
E9
100
AcDbEntity
   8
LAYER0
   6
CONTINUOUS
  62
      9
100
AcDbVertex
100
AcDb2dVertex
  10
6.44151
  20
-3.74521
  30
0.0
   0
SEQEND
   5
EA
100
AcDbEntity
   8
LAYER0
   6
CONTINUOUS
   0
POLYLINE
   5
EB
100
AcDbEntity
   8
LAYER0
   6
CONTINUOUS
  62
      9
100
AcDb2dPolyline
  66
      1
  10
0.0
  20
0.0
  30
0.0
  70
      1
  75
      5
   0
VERTEX
   5
EC
100
AcDbEntity
   8
LAYER0
   6
CONTINUOUS
  62
      9
100
AcDbVertex
100
AcDb2dVertex
  10
6.37901
  20
-3.85346
  30
0.0
   0
VERTEX
   5
ED
100
AcDbEntity
   8
LAYER0
   6
CONTINUOUS
  62
      9
100
AcDbVertex
100
AcDb2dVertex
  10
6.31651
  20
-3.74521
  30
0.0
   0
VERTEX
   5
EE
100
AcDbEntity
   8
LAYER0
   6
CONTINUOUS
  62
      9
100
AcDbVertex
100
AcDb2dVertex
  10
6.37901
  20
-4.74521
  30
0.0
   0
VERTEX
   5
EF
100
AcDbEntity
   8
LAYER0
   6
CONTINUOUS
  62
      9
100
AcDbVertex
100
AcDb2dVertex
  10
6.44151
  20
-4.63696
  30
0.0
   0
SEQEND
   5
F0
100
AcDbEntity
   8
LAYER0
   6
CONTINUOUS
   0
POLYLINE
   5
F1
100
AcDbEntity
   8
LAYER0
   6
CONTINUOUS
  62
      9
100
AcDb2dPolyline
  66
      1
  10
0.0
  20
0.0
  30
0.0
  70
      1
  75
      5
   0
VERTEX
   5
F2
100
AcDbEntity
   8
LAYER0
   6
CONTINUOUS
  62
      9
100
AcDbVertex
100
AcDb2dVertex
  10
6.37901
  20
-4.74521
  30
0.0
   0
VERTEX
   5
F3
100
AcDbEntity
   8
LAYER0
   6
CONTINUOUS
  62
      9
100
AcDbVertex
100
AcDb2dVertex
  10
6.31651
  20
-4.63696
  30
0.0
   0
VERTEX
   5
F4
100
AcDbEntity
   8
LAYER0
   6
CONTINUOUS
  62
      9
100
AcDbVertex
100
AcDb2dVertex
  10
6.25401
  20
-3.85347
  30
0.0
   0
VERTEX
   5
F5
100
AcDbEntity
   8
LAYER0
   6
CONTINUOUS
  62
      9
100
AcDbVertex
100
AcDb2dVertex
  10
6.31651
  20
-3.74522
  30
0.0
   0
SEQEND
   5
F6
100
AcDbEntity
   8
LAYER0
   6
CONTINUOUS
   0
POLYLINE
   5
F7
100
AcDbEntity
   8
LAYER0
   6
CONTINUOUS
  62
      9
100
AcDb2dPolyline
  66
      1
  10
0.0
  20
0.0
  30
0.0
  70
      1
  75
      5
   0
VERTEX
   5
F8
100
AcDbEntity
   8
LAYER0
   6
CONTINUOUS
  62
      9
100
AcDbVertex
100
AcDb2dVertex
  10
6.25401
  20
-3.85347
  30
0.0
   0
VERTEX
   5
F9
100
AcDbEntity
   8
LAYER0
   6
CONTINUOUS
  62
      9
100
AcDbVertex
100
AcDb2dVertex
  10
6.19151
  20
-3.74522
  30
0.0
   0
VERTEX
   5
FA
100
AcDbEntity
   8
LAYER0
   6
CONTINUOUS
  62
      9
100
AcDbVertex
100
AcDb2dVertex
  10
6.25401
  20
-4.74522
  30
0.0
   0
VERTEX
   5
FB
100
AcDbEntity
   8
LAYER0
   6
CONTINUOUS
  62
      9
100
AcDbVertex
100
AcDb2dVertex
  10
6.31651
  20
-4.63697
  30
0.0
   0
SEQEND
   5
FC
100
AcDbEntity
   8
LAYER0
   6
CONTINUOUS
   0
POLYLINE
   5
FD
100
AcDbEntity
   8
LAYER0
   6
CONTINUOUS
  62
      9
100
AcDb2dPolyline
  66
      1
  10
0.0
  20
0.0
  30
0.0
  70
      1
  75
      5
   0
VERTEX
   5
FE
100
AcDbEntity
   8
LAYER0
   6
CONTINUOUS
  62
      9
100
AcDbVertex
100
AcDb2dVertex
  10
6.25401
  20
-4.74522
  30
0.0
   0
VERTEX
   5
FF
100
AcDbEntity
   8
LAYER0
   6
CONTINUOUS
  62
      9
100
AcDbVertex
100
AcDb2dVertex
  10
6.19151
  20
-4.63697
  30
0.0
   0
VERTEX
   5
100
100
AcDbEntity
   8
LAYER0
   6
CONTINUOUS
  62
      9
100
AcDbVertex
100
AcDb2dVertex
  10
6.12901
  20
-3.85348
  30
0.0
   0
VERTEX
   5
101
100
AcDbEntity
   8
LAYER0
   6
CONTINUOUS
  62
      9
100
AcDbVertex
100
AcDb2dVertex
  10
6.19151
  20
-3.74523
  30
0.0
   0
SEQEND
   5
102
100
AcDbEntity
   8
LAYER0
   6
CONTINUOUS
   0
POLYLINE
   5
103
100
AcDbEntity
   8
LAYER0
   6
CONTINUOUS
  62
      9
100
AcDb2dPolyline
  66
      1
  10
0.0
  20
0.0
  30
0.0
  70
      1
  75
      5
   0
VERTEX
   5
104
100
AcDbEntity
   8
LAYER0
   6
CONTINUOUS
  62
      9
100
AcDbVertex
100
AcDb2dVertex
  10
6.12901
  20
-3.85348
  30
0.0
   0
VERTEX
   5
105
100
AcDbEntity
   8
LAYER0
   6
CONTINUOUS
  62
      9
100
AcDbVertex
100
AcDb2dVertex
  10
6.06651
  20
-3.74523
  30
0.0
   0
VERTEX
   5
106
100
AcDbEntity
   8
LAYER0
   6
CONTINUOUS
  62
      9
100
AcDbVertex
100
AcDb2dVertex
  10
6.12901
  20
-4.74523
  30
0.0
   0
VERTEX
   5
107
100
AcDbEntity
   8
LAYER0
   6
CONTINUOUS
  62
      9
100
AcDbVertex
100
AcDb2dVertex
  10
6.19151
  20
-4.63698
  30
0.0
   0
SEQEND
   5
108
100
AcDbEntity
   8
LAYER0
   6
CONTINUOUS
   0
POLYLINE
   5
109
100
AcDbEntity
   8
LAYER0
   6
CONTINUOUS
  62
      9
100
AcDb2dPolyline
  66
      1
  10
0.0
  20
0.0
  30
0.0
  70
      1
  75
      5
   0
VERTEX
   5
10A
100
AcDbEntity
   8
LAYER0
   6
CONTINUOUS
  62
      9
100
AcDbVertex
100
AcDb2dVertex
  10
6.12901
  20
-4.74523
  30
0.0
   0
VERTEX
   5
10B
100
AcDbEntity
   8
LAYER0
   6
CONTINUOUS
  62
      9
100
AcDbVertex
100
AcDb2dVertex
  10
6.06651
  20
-4.63698
  30
0.0
   0
VERTEX
   5
10C
100
AcDbEntity
   8
LAYER0
   6
CONTINUOUS
  62
      9
100
AcDbVertex
100
AcDb2dVertex
  10
6.00401
  20
-3.85349
  30
0.0
   0
VERTEX
   5
10D
100
AcDbEntity
   8
LAYER0
   6
CONTINUOUS
  62
      9
100
AcDbVertex
100
AcDb2dVertex
  10
6.06651
  20
-3.74524
  30
0.0
   0
SEQEND
   5
10E
100
AcDbEntity
   8
LAYER0
   6
CONTINUOUS
   0
POLYLINE
   5
10F
100
AcDbEntity
   8
LAYER0
   6
CONTINUOUS
  62
      9
100
AcDb2dPolyline
  66
      1
  10
0.0
  20
0.0
  30
0.0
  70
      1
  75
      5
   0
VERTEX
   5
110
100
AcDbEntity
   8
LAYER0
   6
CONTINUOUS
  62
      9
100
AcDbVertex
100
AcDb2dVertex
  10
6.00401
  20
-3.85349
  30
0.0
   0
VERTEX
   5
111
100
AcDbEntity
   8
LAYER0
   6
CONTINUOUS
  62
      9
100
AcDbVertex
100
AcDb2dVertex
  10
5.94151
  20
-3.74524
  30
0.0
   0
VERTEX
   5
112
100
AcDbEntity
   8
LAYER0
   6
CONTINUOUS
  62
      9
100
AcDbVertex
100
AcDb2dVertex
  10
6.00401
  20
-4.74524
  30
0.0
   0
VERTEX
   5
113
100
AcDbEntity
   8
LAYER0
   6
CONTINUOUS
  62
      9
100
AcDbVertex
100
AcDb2dVertex
  10
6.06651
  20
-4.63699
  30
0.0
   0
SEQEND
   5
114
100
AcDbEntity
   8
LAYER0
   6
CONTINUOUS
   0
POLYLINE
   5
115
100
AcDbEntity
   8
LAYER0
   6
CONTINUOUS
  62
      9
100
AcDb2dPolyline
  66
      1
  10
0.0
  20
0.0
  30
0.0
  70
      1
  75
      5
   0
VERTEX
   5
116
100
AcDbEntity
   8
LAYER0
   6
CONTINUOUS
  62
      9
100
AcDbVertex
100
AcDb2dVertex
  10
6.00401
  20
-4.74524
  30
0.0
   0
VERTEX
   5
117
100
AcDbEntity
   8
LAYER0
   6
CONTINUOUS
  62
      9
100
AcDbVertex
100
AcDb2dVertex
  10
5.94151
  20
-4.63699
  30
0.0
   0
VERTEX
   5
118
100
AcDbEntity
   8
LAYER0
   6
CONTINUOUS
  62
      9
100
AcDbVertex
100
AcDb2dVertex
  10
5.87901
  20
-3.8535
  30
0.0
   0
VERTEX
   5
119
100
AcDbEntity
   8
LAYER0
   6
CONTINUOUS
  62
      9
100
AcDbVertex
100
AcDb2dVertex
  10
5.94151
  20
-3.74525
  30
0.0
   0
SEQEND
   5
11A
100
AcDbEntity
   8
LAYER0
   6
CONTINUOUS
   0
POLYLINE
   5
11B
100
AcDbEntity
   8
LAYER0
   6
CONTINUOUS
  62
      9
100
AcDb2dPolyline
  66
      1
  10
0.0
  20
0.0
  30
0.0
  70
      1
  75
      5
   0
VERTEX
   5
11C
100
AcDbEntity
   8
LAYER0
   6
CONTINUOUS
  62
      9
100
AcDbVertex
100
AcDb2dVertex
  10
5.87901
  20
-3.8535
  30
0.0
   0
VERTEX
   5
11D
100
AcDbEntity
   8
LAYER0
   6
CONTINUOUS
  62
      9
100
AcDbVertex
100
AcDb2dVertex
  10
5.81651
  20
-3.74525
  30
0.0
   0
VERTEX
   5
11E
100
AcDbEntity
   8
LAYER0
   6
CONTINUOUS
  62
      9
100
AcDbVertex
100
AcDb2dVertex
  10
5.87901
  20
-4.74525
  30
0.0
   0
VERTEX
   5
11F
100
AcDbEntity
   8
LAYER0
   6
CONTINUOUS
  62
      9
100
AcDbVertex
100
AcDb2dVertex
  10
5.94151
  20
-4.637
  30
0.0
   0
SEQEND
   5
120
100
AcDbEntity
   8
LAYER0
   6
CONTINUOUS
   0
POLYLINE
   5
121
100
AcDbEntity
   8
LAYER0
   6
CONTINUOUS
  62
      9
100
AcDb2dPolyline
  66
      1
  10
0.0
  20
0.0
  30
0.0
  70
      1
  75
      5
   0
VERTEX
   5
122
100
AcDbEntity
   8
LAYER0
   6
CONTINUOUS
  62
      9
100
AcDbVertex
100
AcDb2dVertex
  10
5.87901
  20
-4.74525
  30
0.0
   0
VERTEX
   5
123
100
AcDbEntity
   8
LAYER0
   6
CONTINUOUS
  62
      9
100
AcDbVertex
100
AcDb2dVertex
  10
5.81651
  20
-4.637
  30
0.0
   0
VERTEX
   5
124
100
AcDbEntity
   8
LAYER0
   6
CONTINUOUS
  62
      9
100
AcDbVertex
100
AcDb2dVertex
  10
5.75401
  20
-3.85351
  30
0.0
   0
VERTEX
   5
125
100
AcDbEntity
   8
LAYER0
   6
CONTINUOUS
  62
      9
100
AcDbVertex
100
AcDb2dVertex
  10
5.81651
  20
-3.74526
  30
0.0
   0
SEQEND
   5
126
100
AcDbEntity
   8
LAYER0
   6
CONTINUOUS
   0
POLYLINE
   5
127
100
AcDbEntity
   8
LAYER0
   6
CONTINUOUS
  62
      9
100
AcDb2dPolyline
  66
      1
  10
0.0
  20
0.0
  30
0.0
  70
      1
  75
      5
   0
VERTEX
   5
128
100
AcDbEntity
   8
LAYER0
   6
CONTINUOUS
  62
      9
100
AcDbVertex
100
AcDb2dVertex
  10
5.75401
  20
-3.85351
  30
0.0
   0
VERTEX
   5
129
100
AcDbEntity
   8
LAYER0
   6
CONTINUOUS
  62
      9
100
AcDbVertex
100
AcDb2dVertex
  10
5.69151
  20
-3.74526
  30
0.0
   0
VERTEX
   5
12A
100
AcDbEntity
   8
LAYER0
   6
CONTINUOUS
  62
      9
100
AcDbVertex
100
AcDb2dVertex
  10
5.75401
  20
-4.74526
  30
0.0
   0
VERTEX
   5
12B
100
AcDbEntity
   8
LAYER0
   6
CONTINUOUS
  62
      9
100
AcDbVertex
100
AcDb2dVertex
  10
5.81651
  20
-4.63701
  30
0.0
   0
SEQEND
   5
12C
100
AcDbEntity
   8
LAYER0
   6
CONTINUOUS
   0
POLYLINE
   5
12D
100
AcDbEntity
   8
LAYER0
   6
CONTINUOUS
  62
      9
100
AcDb2dPolyline
  66
      1
  10
0.0
  20
0.0
  30
0.0
  70
      1
  75
      5
   0
VERTEX
   5
12E
100
AcDbEntity
   8
LAYER0
   6
CONTINUOUS
  62
      9
100
AcDbVertex
100
AcDb2dVertex
  10
5.75401
  20
-4.74526
  30
0.0
   0
VERTEX
   5
12F
100
AcDbEntity
   8
LAYER0
   6
CONTINUOUS
  62
      9
100
AcDbVertex
100
AcDb2dVertex
  10
5.69151
  20
-4.63701
  30
0.0
   0
VERTEX
   5
130
100
AcDbEntity
   8
LAYER0
   6
CONTINUOUS
  62
      9
100
AcDbVertex
100
AcDb2dVertex
  10
5.62901
  20
-3.85352
  30
0.0
   0
VERTEX
   5
131
100
AcDbEntity
   8
LAYER0
   6
CONTINUOUS
  62
      9
100
AcDbVertex
100
AcDb2dVertex
  10
5.69151
  20
-3.74527
  30
0.0
   0
SEQEND
   5
132
100
AcDbEntity
   8
LAYER0
   6
CONTINUOUS
   0
POLYLINE
   5
133
100
AcDbEntity
   8
LAYER0
   6
CONTINUOUS
  62
      9
100
AcDb2dPolyline
  66
      1
  10
0.0
  20
0.0
  30
0.0
  70
      1
  75
      5
   0
VERTEX
   5
134
100
AcDbEntity
   8
LAYER0
   6
CONTINUOUS
  62
      9
100
AcDbVertex
100
AcDb2dVertex
  10
5.62901
  20
-3.85352
  30
0.0
   0
VERTEX
   5
135
100
AcDbEntity
   8
LAYER0
   6
CONTINUOUS
  62
      9
100
AcDbVertex
100
AcDb2dVertex
  10
5.56651
  20
-3.74527
  30
0.0
   0
VERTEX
   5
136
100
AcDbEntity
   8
LAYER0
   6
CONTINUOUS
  62
      9
100
AcDbVertex
100
AcDb2dVertex
  10
5.62901
  20
-4.74527
  30
0.0
   0
VERTEX
   5
137
100
AcDbEntity
   8
LAYER0
   6
CONTINUOUS
  62
      9
100
AcDbVertex
100
AcDb2dVertex
  10
5.69151
  20
-4.63702
  30
0.0
   0
SEQEND
   5
138
100
AcDbEntity
   8
LAYER0
   6
CONTINUOUS
   0
POLYLINE
   5
139
100
AcDbEntity
   8
LAYER0
   6
CONTINUOUS
  62
      9
100
AcDb2dPolyline
  66
      1
  10
0.0
  20
0.0
  30
0.0
  70
      1
  75
      5
   0
VERTEX
   5
13A
100
AcDbEntity
   8
LAYER0
   6
CONTINUOUS
  62
      9
100
AcDbVertex
100
AcDb2dVertex
  10
5.62901
  20
-4.74527
  30
0.0
   0
VERTEX
   5
13B
100
AcDbEntity
   8
LAYER0
   6
CONTINUOUS
  62
      9
100
AcDbVertex
100
AcDb2dVertex
  10
5.56651
  20
-4.63702
  30
0.0
   0
VERTEX
   5
13C
100
AcDbEntity
   8
LAYER0
   6
CONTINUOUS
  62
      9
100
AcDbVertex
100
AcDb2dVertex
  10
5.50401
  20
-3.85353
  30
0.0
   0
VERTEX
   5
13D
100
AcDbEntity
   8
LAYER0
   6
CONTINUOUS
  62
      9
100
AcDbVertex
100
AcDb2dVertex
  10
5.56651
  20
-3.74528
  30
0.0
   0
SEQEND
   5
13E
100
AcDbEntity
   8
LAYER0
   6
CONTINUOUS
   0
POLYLINE
   5
13F
100
AcDbEntity
   8
LAYER0
   6
CONTINUOUS
  62
      9
100
AcDb2dPolyline
  66
      1
  10
0.0
  20
0.0
  30
0.0
  70
      1
  75
      5
   0
VERTEX
   5
140
100
AcDbEntity
   8
LAYER0
   6
CONTINUOUS
  62
      9
100
AcDbVertex
100
AcDb2dVertex
  10
5.50401
  20
-3.85353
  30
0.0
   0
VERTEX
   5
141
100
AcDbEntity
   8
LAYER0
   6
CONTINUOUS
  62
      9
100
AcDbVertex
100
AcDb2dVertex
  10
5.44151
  20
-3.74528
  30
0.0
   0
VERTEX
   5
142
100
AcDbEntity
   8
LAYER0
   6
CONTINUOUS
  62
      9
100
AcDbVertex
100
AcDb2dVertex
  10
5.50401
  20
-4.74528
  30
0.0
   0
VERTEX
   5
143
100
AcDbEntity
   8
LAYER0
   6
CONTINUOUS
  62
      9
100
AcDbVertex
100
AcDb2dVertex
  10
5.56651
  20
-4.63703
  30
0.0
   0
SEQEND
   5
144
100
AcDbEntity
   8
LAYER0
   6
CONTINUOUS
   0
POLYLINE
   5
145
100
AcDbEntity
   8
LAYER0
   6
CONTINUOUS
  62
      9
100
AcDb2dPolyline
  66
      1
  10
0.0
  20
0.0
  30
0.0
  70
      1
  75
      5
   0
VERTEX
   5
146
100
AcDbEntity
   8
LAYER0
   6
CONTINUOUS
  62
      9
100
AcDbVertex
100
AcDb2dVertex
  10
5.50401
  20
-4.74528
  30
0.0
   0
VERTEX
   5
147
100
AcDbEntity
   8
LAYER0
   6
CONTINUOUS
  62
      9
100
AcDbVertex
100
AcDb2dVertex
  10
5.44151
  20
-4.63703
  30
0.0
   0
VERTEX
   5
148
100
AcDbEntity
   8
LAYER0
   6
CONTINUOUS
  62
      9
100
AcDbVertex
100
AcDb2dVertex
  10
5.37901
  20
-3.85354
  30
0.0
   0
VERTEX
   5
149
100
AcDbEntity
   8
LAYER0
   6
CONTINUOUS
  62
      9
100
AcDbVertex
100
AcDb2dVertex
  10
5.44151
  20
-3.74529
  30
0.0
   0
SEQEND
   5
14A
100
AcDbEntity
   8
LAYER0
   6
CONTINUOUS
   0
POLYLINE
   5
14B
100
AcDbEntity
   8
LAYER0
   6
CONTINUOUS
  62
      9
100
AcDb2dPolyline
  66
      1
  10
0.0
  20
0.0
  30
0.0
  70
      1
  75
      5
   0
VERTEX
   5
14C
100
AcDbEntity
   8
LAYER0
   6
CONTINUOUS
  62
      9
100
AcDbVertex
100
AcDb2dVertex
  10
5.37901
  20
-3.85354
  30
0.0
   0
VERTEX
   5
14D
100
AcDbEntity
   8
LAYER0
   6
CONTINUOUS
  62
      9
100
AcDbVertex
100
AcDb2dVertex
  10
5.31651
  20
-3.74529
  30
0.0
   0
VERTEX
   5
14E
100
AcDbEntity
   8
LAYER0
   6
CONTINUOUS
  62
      9
100
AcDbVertex
100
AcDb2dVertex
  10
5.37901
  20
-4.74529
  30
0.0
   0
VERTEX
   5
14F
100
AcDbEntity
   8
LAYER0
   6
CONTINUOUS
  62
      9
100
AcDbVertex
100
AcDb2dVertex
  10
5.44151
  20
-4.63704
  30
0.0
   0
SEQEND
   5
150
100
AcDbEntity
   8
LAYER0
   6
CONTINUOUS
   0
POLYLINE
   5
151
100
AcDbEntity
   8
LAYER0
   6
CONTINUOUS
  62
      9
100
AcDb2dPolyline
  66
      1
  10
0.0
  20
0.0
  30
0.0
  70
      1
  75
      5
   0
VERTEX
   5
152
100
AcDbEntity
   8
LAYER0
   6
CONTINUOUS
  62
      9
100
AcDbVertex
100
AcDb2dVertex
  10
5.37901
  20
-4.74529
  30
0.0
   0
VERTEX
   5
153
100
AcDbEntity
   8
LAYER0
   6
CONTINUOUS
  62
      9
100
AcDbVertex
100
AcDb2dVertex
  10
5.31651
  20
-4.63704
  30
0.0
   0
VERTEX
   5
154
100
AcDbEntity
   8
LAYER0
   6
CONTINUOUS
  62
      9
100
AcDbVertex
100
AcDb2dVertex
  10
5.25401
  20
-3.85355
  30
0.0
   0
VERTEX
   5
155
100
AcDbEntity
   8
LAYER0
   6
CONTINUOUS
  62
      9
100
AcDbVertex
100
AcDb2dVertex
  10
5.31651
  20
-3.7453
  30
0.0
   0
SEQEND
   5
156
100
AcDbEntity
   8
LAYER0
   6
CONTINUOUS
   0
POLYLINE
   5
157
100
AcDbEntity
   8
LAYER0
   6
CONTINUOUS
  62
      9
100
AcDb2dPolyline
  66
      1
  10
0.0
  20
0.0
  30
0.0
  70
      1
  75
      5
   0
VERTEX
   5
158
100
AcDbEntity
   8
LAYER0
   6
CONTINUOUS
  62
      9
100
AcDbVertex
100
AcDb2dVertex
  10
5.25401
  20
-3.85355
  30
0.0
   0
VERTEX
   5
159
100
AcDbEntity
   8
LAYER0
   6
CONTINUOUS
  62
      9
100
AcDbVertex
100
AcDb2dVertex
  10
5.19151
  20
-3.7453
  30
0.0
   0
VERTEX
   5
15A
100
AcDbEntity
   8
LAYER0
   6
CONTINUOUS
  62
      9
100
AcDbVertex
100
AcDb2dVertex
  10
5.25401
  20
-4.7453
  30
0.0
   0
VERTEX
   5
15B
100
AcDbEntity
   8
LAYER0
   6
CONTINUOUS
  62
      9
100
AcDbVertex
100
AcDb2dVertex
  10
5.31651
  20
-4.63705
  30
0.0
   0
SEQEND
   5
15C
100
AcDbEntity
   8
LAYER0
   6
CONTINUOUS
   0
POLYLINE
   5
15D
100
AcDbEntity
   8
LAYER0
   6
CONTINUOUS
  62
      9
100
AcDb2dPolyline
  66
      1
  10
0.0
  20
0.0
  30
0.0
  70
      1
  75
      5
   0
VERTEX
   5
15E
100
AcDbEntity
   8
LAYER0
   6
CONTINUOUS
  62
      9
100
AcDbVertex
100
AcDb2dVertex
  10
5.25401
  20
-4.7453
  30
0.0
   0
VERTEX
   5
15F
100
AcDbEntity
   8
LAYER0
   6
CONTINUOUS
  62
      9
100
AcDbVertex
100
AcDb2dVertex
  10
5.19151
  20
-4.63705
  30
0.0
   0
VERTEX
   5
160
100
AcDbEntity
   8
LAYER0
   6
CONTINUOUS
  62
      9
100
AcDbVertex
100
AcDb2dVertex
  10
5.12901
  20
-3.85356
  30
0.0
   0
VERTEX
   5
161
100
AcDbEntity
   8
LAYER0
   6
CONTINUOUS
  62
      9
100
AcDbVertex
100
AcDb2dVertex
  10
5.19151
  20
-3.74531
  30
0.0
   0
SEQEND
   5
162
100
AcDbEntity
   8
LAYER0
   6
CONTINUOUS
   0
POLYLINE
   5
163
100
AcDbEntity
   8
LAYER0
   6
CONTINUOUS
  62
      9
100
AcDb2dPolyline
  66
      1
  10
0.0
  20
0.0
  30
0.0
  70
      1
  75
      5
   0
VERTEX
   5
164
100
AcDbEntity
   8
LAYER0
   6
CONTINUOUS
  62
      9
100
AcDbVertex
100
AcDb2dVertex
  10
5.12901
  20
-3.85356
  30
0.0
   0
VERTEX
   5
165
100
AcDbEntity
   8
LAYER0
   6
CONTINUOUS
  62
      9
100
AcDbVertex
100
AcDb2dVertex
  10
5.06651
  20
-3.74531
  30
0.0
   0
VERTEX
   5
166
100
AcDbEntity
   8
LAYER0
   6
CONTINUOUS
  62
      9
100
AcDbVertex
100
AcDb2dVertex
  10
5.12901
  20
-4.74531
  30
0.0
   0
VERTEX
   5
167
100
AcDbEntity
   8
LAYER0
   6
CONTINUOUS
  62
      9
100
AcDbVertex
100
AcDb2dVertex
  10
5.19151
  20
-4.63706
  30
0.0
   0
SEQEND
   5
168
100
AcDbEntity
   8
LAYER0
   6
CONTINUOUS
   0
POLYLINE
   5
169
100
AcDbEntity
   8
LAYER0
   6
CONTINUOUS
  62
      9
100
AcDb2dPolyline
  66
      1
  10
0.0
  20
0.0
  30
0.0
  70
      1
  75
      5
   0
VERTEX
   5
16A
100
AcDbEntity
   8
LAYER0
   6
CONTINUOUS
  62
      9
100
AcDbVertex
100
AcDb2dVertex
  10
5.12901
  20
-4.74531
  30
0.0
   0
VERTEX
   5
16B
100
AcDbEntity
   8
LAYER0
   6
CONTINUOUS
  62
      9
100
AcDbVertex
100
AcDb2dVertex
  10
5.06651
  20
-4.63706
  30
0.0
   0
VERTEX
   5
16C
100
AcDbEntity
   8
LAYER0
   6
CONTINUOUS
  62
      9
100
AcDbVertex
100
AcDb2dVertex
  10
5.00401
  20
-3.85357
  30
0.0
   0
VERTEX
   5
16D
100
AcDbEntity
   8
LAYER0
   6
CONTINUOUS
  62
      9
100
AcDbVertex
100
AcDb2dVertex
  10
5.06651
  20
-3.74532
  30
0.0
   0
SEQEND
   5
16E
100
AcDbEntity
   8
LAYER0
   6
CONTINUOUS
   0
POLYLINE
   5
16F
100
AcDbEntity
   8
LAYER0
   6
CONTINUOUS
  62
      9
100
AcDb2dPolyline
  66
      1
  10
0.0
  20
0.0
  30
0.0
  70
      1
  75
      5
   0
VERTEX
   5
170
100
AcDbEntity
   8
LAYER0
   6
CONTINUOUS
  62
      9
100
AcDbVertex
100
AcDb2dVertex
  10
5.00401
  20
-3.85357
  30
0.0
   0
VERTEX
   5
171
100
AcDbEntity
   8
LAYER0
   6
CONTINUOUS
  62
      9
100
AcDbVertex
100
AcDb2dVertex
  10
4.94151
  20
-3.74532
  30
0.0
   0
VERTEX
   5
172
100
AcDbEntity
   8
LAYER0
   6
CONTINUOUS
  62
      9
100
AcDbVertex
100
AcDb2dVertex
  10
5.00401
  20
-4.74532
  30
0.0
   0
VERTEX
   5
173
100
AcDbEntity
   8
LAYER0
   6
CONTINUOUS
  62
      9
100
AcDbVertex
100
AcDb2dVertex
  10
5.06651
  20
-4.63707
  30
0.0
   0
SEQEND
   5
174
100
AcDbEntity
   8
LAYER0
   6
CONTINUOUS
   0
POLYLINE
   5
175
100
AcDbEntity
   8
LAYER0
   6
CONTINUOUS
  62
      9
100
AcDb2dPolyline
  66
      1
  10
0.0
  20
0.0
  30
0.0
  70
      1
  75
      5
   0
VERTEX
   5
176
100
AcDbEntity
   8
LAYER0
   6
CONTINUOUS
  62
      9
100
AcDbVertex
100
AcDb2dVertex
  10
5.00401
  20
-4.74532
  30
0.0
   0
VERTEX
   5
177
100
AcDbEntity
   8
LAYER0
   6
CONTINUOUS
  62
      9
100
AcDbVertex
100
AcDb2dVertex
  10
4.94151
  20
-4.63707
  30
0.0
   0
VERTEX
   5
178
100
AcDbEntity
   8
LAYER0
   6
CONTINUOUS
  62
      9
100
AcDbVertex
100
AcDb2dVertex
  10
4.87901
  20
-3.85358
  30
0.0
   0
VERTEX
   5
179
100
AcDbEntity
   8
LAYER0
   6
CONTINUOUS
  62
      9
100
AcDbVertex
100
AcDb2dVertex
  10
4.94151
  20
-3.74533
  30
0.0
   0
SEQEND
   5
17A
100
AcDbEntity
   8
LAYER0
   6
CONTINUOUS
   0
POLYLINE
   5
17B
100
AcDbEntity
   8
LAYER0
   6
CONTINUOUS
  62
      9
100
AcDb2dPolyline
  66
      1
  10
0.0
  20
0.0
  30
0.0
  70
      1
  75
      5
   0
VERTEX
   5
17C
100
AcDbEntity
   8
LAYER0
   6
CONTINUOUS
  62
      9
100
AcDbVertex
100
AcDb2dVertex
  10
4.87901
  20
-3.85358
  30
0.0
   0
VERTEX
   5
17D
100
AcDbEntity
   8
LAYER0
   6
CONTINUOUS
  62
      9
100
AcDbVertex
100
AcDb2dVertex
  10
4.81651
  20
-3.74533
  30
0.0
   0
VERTEX
   5
17E
100
AcDbEntity
   8
LAYER0
   6
CONTINUOUS
  62
      9
100
AcDbVertex
100
AcDb2dVertex
  10
4.87901
  20
-4.74533
  30
0.0
   0
VERTEX
   5
17F
100
AcDbEntity
   8
LAYER0
   6
CONTINUOUS
  62
      9
100
AcDbVertex
100
AcDb2dVertex
  10
4.94151
  20
-4.63708
  30
0.0
   0
SEQEND
   5
180
100
AcDbEntity
   8
LAYER0
   6
CONTINUOUS
   0
POLYLINE
   5
181
100
AcDbEntity
   8
LAYER0
   6
CONTINUOUS
  62
      9
100
AcDb2dPolyline
  66
      1
  10
0.0
  20
0.0
  30
0.0
  70
      1
  75
      5
   0
VERTEX
   5
182
100
AcDbEntity
   8
LAYER0
   6
CONTINUOUS
  62
      9
100
AcDbVertex
100
AcDb2dVertex
  10
4.87901
  20
-4.74533
  30
0.0
   0
VERTEX
   5
183
100
AcDbEntity
   8
LAYER0
   6
CONTINUOUS
  62
      9
100
AcDbVertex
100
AcDb2dVertex
  10
4.81651
  20
-4.63708
  30
0.0
   0
VERTEX
   5
184
100
AcDbEntity
   8
LAYER0
   6
CONTINUOUS
  62
      9
100
AcDbVertex
100
AcDb2dVertex
  10
4.75401
  20
-3.85359
  30
0.0
   0
VERTEX
   5
185
100
AcDbEntity
   8
LAYER0
   6
CONTINUOUS
  62
      9
100
AcDbVertex
100
AcDb2dVertex
  10
4.81651
  20
-3.74534
  30
0.0
   0
SEQEND
   5
186
100
AcDbEntity
   8
LAYER0
   6
CONTINUOUS
   0
POLYLINE
   5
187
100
AcDbEntity
   8
LAYER0
   6
CONTINUOUS
  62
      9
100
AcDb2dPolyline
  66
      1
  10
0.0
  20
0.0
  30
0.0
  70
      1
  75
      5
   0
VERTEX
   5
188
100
AcDbEntity
   8
LAYER0
   6
CONTINUOUS
  62
      9
100
AcDbVertex
100
AcDb2dVertex
  10
4.75401
  20
-3.85359
  30
0.0
   0
VERTEX
   5
189
100
AcDbEntity
   8
LAYER0
   6
CONTINUOUS
  62
      9
100
AcDbVertex
100
AcDb2dVertex
  10
4.69151
  20
-3.74534
  30
0.0
   0
VERTEX
   5
18A
100
AcDbEntity
   8
LAYER0
   6
CONTINUOUS
  62
      9
100
AcDbVertex
100
AcDb2dVertex
  10
4.75401
  20
-4.74534
  30
0.0
   0
VERTEX
   5
18B
100
AcDbEntity
   8
LAYER0
   6
CONTINUOUS
  62
      9
100
AcDbVertex
100
AcDb2dVertex
  10
4.81651
  20
-4.63709
  30
0.0
   0
SEQEND
   5
18C
100
AcDbEntity
   8
LAYER0
   6
CONTINUOUS
   0
POLYLINE
   5
18D
100
AcDbEntity
   8
LAYER0
   6
CONTINUOUS
  62
      9
100
AcDb2dPolyline
  66
      1
  10
0.0
  20
0.0
  30
0.0
  70
      1
  75
      5
   0
VERTEX
   5
18E
100
AcDbEntity
   8
LAYER0
   6
CONTINUOUS
  62
      9
100
AcDbVertex
100
AcDb2dVertex
  10
4.75401
  20
-4.74534
  30
0.0
   0
VERTEX
   5
18F
100
AcDbEntity
   8
LAYER0
   6
CONTINUOUS
  62
      9
100
AcDbVertex
100
AcDb2dVertex
  10
4.69151
  20
-4.63709
  30
0.0
   0
VERTEX
   5
190
100
AcDbEntity
   8
LAYER0
   6
CONTINUOUS
  62
      9
100
AcDbVertex
100
AcDb2dVertex
  10
4.62901
  20
-3.8536
  30
0.0
   0
VERTEX
   5
191
100
AcDbEntity
   8
LAYER0
   6
CONTINUOUS
  62
      9
100
AcDbVertex
100
AcDb2dVertex
  10
4.69151
  20
-3.74535
  30
0.0
   0
SEQEND
   5
192
100
AcDbEntity
   8
LAYER0
   6
CONTINUOUS
   0
POLYLINE
   5
193
100
AcDbEntity
   8
LAYER0
   6
CONTINUOUS
  62
      9
100
AcDb2dPolyline
  66
      1
  10
0.0
  20
0.0
  30
0.0
  70
      1
  75
      5
   0
VERTEX
   5
194
100
AcDbEntity
   8
LAYER0
   6
CONTINUOUS
  62
      9
100
AcDbVertex
100
AcDb2dVertex
  10
4.62901
  20
-3.8536
  30
0.0
   0
VERTEX
   5
195
100
AcDbEntity
   8
LAYER0
   6
CONTINUOUS
  62
      9
100
AcDbVertex
100
AcDb2dVertex
  10
4.56651
  20
-3.74535
  30
0.0
   0
VERTEX
   5
196
100
AcDbEntity
   8
LAYER0
   6
CONTINUOUS
  62
      9
100
AcDbVertex
100
AcDb2dVertex
  10
4.62901
  20
-4.74535
  30
0.0
   0
VERTEX
   5
197
100
AcDbEntity
   8
LAYER0
   6
CONTINUOUS
  62
      9
100
AcDbVertex
100
AcDb2dVertex
  10
4.69151
  20
-4.6371
  30
0.0
   0
SEQEND
   5
198
100
AcDbEntity
   8
LAYER0
   6
CONTINUOUS
   0
POLYLINE
   5
199
100
AcDbEntity
   8
LAYER0
   6
CONTINUOUS
  62
      9
100
AcDb2dPolyline
  66
      1
  10
0.0
  20
0.0
  30
0.0
  70
      1
  75
      5
   0
VERTEX
   5
19A
100
AcDbEntity
   8
LAYER0
   6
CONTINUOUS
  62
      9
100
AcDbVertex
100
AcDb2dVertex
  10
4.62901
  20
-4.74535
  30
0.0
   0
VERTEX
   5
19B
100
AcDbEntity
   8
LAYER0
   6
CONTINUOUS
  62
      9
100
AcDbVertex
100
AcDb2dVertex
  10
4.56651
  20
-4.6371
  30
0.0
   0
VERTEX
   5
19C
100
AcDbEntity
   8
LAYER0
   6
CONTINUOUS
  62
      9
100
AcDbVertex
100
AcDb2dVertex
  10
4.50401
  20
-3.85361
  30
0.0
   0
VERTEX
   5
19D
100
AcDbEntity
   8
LAYER0
   6
CONTINUOUS
  62
      9
100
AcDbVertex
100
AcDb2dVertex
  10
4.56651
  20
-3.74536
  30
0.0
   0
SEQEND
   5
19E
100
AcDbEntity
   8
LAYER0
   6
CONTINUOUS
   0
POLYLINE
   5
19F
100
AcDbEntity
   8
LAYER0
   6
CONTINUOUS
  62
      9
100
AcDb2dPolyline
  66
      1
  10
0.0
  20
0.0
  30
0.0
  70
      1
  75
      5
   0
VERTEX
   5
1A0
100
AcDbEntity
   8
LAYER0
   6
CONTINUOUS
  62
      9
100
AcDbVertex
100
AcDb2dVertex
  10
4.50401
  20
-3.85361
  30
0.0
   0
VERTEX
   5
1A1
100
AcDbEntity
   8
LAYER0
   6
CONTINUOUS
  62
      9
100
AcDbVertex
100
AcDb2dVertex
  10
4.44151
  20
-3.74536
  30
0.0
   0
VERTEX
   5
1A2
100
AcDbEntity
   8
LAYER0
   6
CONTINUOUS
  62
      9
100
AcDbVertex
100
AcDb2dVertex
  10
4.50401
  20
-4.74536
  30
0.0
   0
VERTEX
   5
1A3
100
AcDbEntity
   8
LAYER0
   6
CONTINUOUS
  62
      9
100
AcDbVertex
100
AcDb2dVertex
  10
4.56651
  20
-4.63711
  30
0.0
   0
SEQEND
   5
1A4
100
AcDbEntity
   8
LAYER0
   6
CONTINUOUS
   0
POLYLINE
   5
1A5
100
AcDbEntity
   8
LAYER0
   6
CONTINUOUS
  62
      9
100
AcDb2dPolyline
  66
      1
  10
0.0
  20
0.0
  30
0.0
  70
      1
  75
      5
   0
VERTEX
   5
1A6
100
AcDbEntity
   8
LAYER0
   6
CONTINUOUS
  62
      9
100
AcDbVertex
100
AcDb2dVertex
  10
4.50401
  20
-4.74536
  30
0.0
   0
VERTEX
   5
1A7
100
AcDbEntity
   8
LAYER0
   6
CONTINUOUS
  62
      9
100
AcDbVertex
100
AcDb2dVertex
  10
4.44151
  20
-4.63711
  30
0.0
   0
VERTEX
   5
1A8
100
AcDbEntity
   8
LAYER0
   6
CONTINUOUS
  62
      9
100
AcDbVertex
100
AcDb2dVertex
  10
4.37901
  20
-3.85362
  30
0.0
   0
VERTEX
   5
1A9
100
AcDbEntity
   8
LAYER0
   6
CONTINUOUS
  62
      9
100
AcDbVertex
100
AcDb2dVertex
  10
4.44151
  20
-3.74537
  30
0.0
   0
SEQEND
   5
1AA
100
AcDbEntity
   8
LAYER0
   6
CONTINUOUS
   0
POLYLINE
   5
1AB
100
AcDbEntity
   8
LAYER0
   6
CONTINUOUS
  62
      9
100
AcDb2dPolyline
  66
      1
  10
0.0
  20
0.0
  30
0.0
  70
      1
  75
      5
   0
VERTEX
   5
1AC
100
AcDbEntity
   8
LAYER0
   6
CONTINUOUS
  62
      9
100
AcDbVertex
100
AcDb2dVertex
  10
4.37901
  20
-3.85362
  30
0.0
   0
VERTEX
   5
1AD
100
AcDbEntity
   8
LAYER0
   6
CONTINUOUS
  62
      9
100
AcDbVertex
100
AcDb2dVertex
  10
4.31651
  20
-3.74537
  30
0.0
   0
VERTEX
   5
1AE
100
AcDbEntity
   8
LAYER0
   6
CONTINUOUS
  62
      9
100
AcDbVertex
100
AcDb2dVertex
  10
4.37901
  20
-4.74537
  30
0.0
   0
VERTEX
   5
1AF
100
AcDbEntity
   8
LAYER0
   6
CONTINUOUS
  62
      9
100
AcDbVertex
100
AcDb2dVertex
  10
4.44151
  20
-4.63712
  30
0.0
   0
SEQEND
   5
1B0
100
AcDbEntity
   8
LAYER0
   6
CONTINUOUS
   0
POLYLINE
   5
1B1
100
AcDbEntity
   8
LAYER0
   6
CONTINUOUS
  62
      9
100
AcDb2dPolyline
  66
      1
  10
0.0
  20
0.0
  30
0.0
  70
      1
  75
      5
   0
VERTEX
   5
1B2
100
AcDbEntity
   8
LAYER0
   6
CONTINUOUS
  62
      9
100
AcDbVertex
100
AcDb2dVertex
  10
4.37901
  20
-4.74537
  30
0.0
   0
VERTEX
   5
1B3
100
AcDbEntity
   8
LAYER0
   6
CONTINUOUS
  62
      9
100
AcDbVertex
100
AcDb2dVertex
  10
4.31651
  20
-4.63712
  30
0.0
   0
VERTEX
   5
1B4
100
AcDbEntity
   8
LAYER0
   6
CONTINUOUS
  62
      9
100
AcDbVertex
100
AcDb2dVertex
  10
4.25401
  20
-3.85363
  30
0.0
   0
VERTEX
   5
1B5
100
AcDbEntity
   8
LAYER0
   6
CONTINUOUS
  62
      9
100
AcDbVertex
100
AcDb2dVertex
  10
4.31651
  20
-3.74538
  30
0.0
   0
SEQEND
   5
1B6
100
AcDbEntity
   8
LAYER0
   6
CONTINUOUS
   0
POLYLINE
   5
1B7
100
AcDbEntity
   8
LAYER0
   6
CONTINUOUS
  62
      9
100
AcDb2dPolyline
  66
      1
  10
0.0
  20
0.0
  30
0.0
  70
      1
  75
      5
   0
VERTEX
   5
1B8
100
AcDbEntity
   8
LAYER0
   6
CONTINUOUS
  62
      9
100
AcDbVertex
100
AcDb2dVertex
  10
4.25401
  20
-3.85363
  30
0.0
   0
VERTEX
   5
1B9
100
AcDbEntity
   8
LAYER0
   6
CONTINUOUS
  62
      9
100
AcDbVertex
100
AcDb2dVertex
  10
4.19151
  20
-3.74538
  30
0.0
   0
VERTEX
   5
1BA
100
AcDbEntity
   8
LAYER0
   6
CONTINUOUS
  62
      9
100
AcDbVertex
100
AcDb2dVertex
  10
4.25401
  20
-4.74538
  30
0.0
   0
VERTEX
   5
1BB
100
AcDbEntity
   8
LAYER0
   6
CONTINUOUS
  62
      9
100
AcDbVertex
100
AcDb2dVertex
  10
4.31651
  20
-4.63713
  30
0.0
   0
SEQEND
   5
1BC
100
AcDbEntity
   8
LAYER0
   6
CONTINUOUS
   0
POLYLINE
   5
1BD
100
AcDbEntity
   8
LAYER0
   6
CONTINUOUS
  62
      9
100
AcDb2dPolyline
  66
      1
  10
0.0
  20
0.0
  30
0.0
  70
      1
  75
      5
   0
VERTEX
   5
1BE
100
AcDbEntity
   8
LAYER0
   6
CONTINUOUS
  62
      9
100
AcDbVertex
100
AcDb2dVertex
  10
4.25401
  20
-4.74538
  30
0.0
   0
VERTEX
   5
1BF
100
AcDbEntity
   8
LAYER0
   6
CONTINUOUS
  62
      9
100
AcDbVertex
100
AcDb2dVertex
  10
4.19151
  20
-4.63713
  30
0.0
   0
VERTEX
   5
1C0
100
AcDbEntity
   8
LAYER0
   6
CONTINUOUS
  62
      9
100
AcDbVertex
100
AcDb2dVertex
  10
4.12901
  20
-3.85364
  30
0.0
   0
VERTEX
   5
1C1
100
AcDbEntity
   8
LAYER0
   6
CONTINUOUS
  62
      9
100
AcDbVertex
100
AcDb2dVertex
  10
4.19151
  20
-3.74539
  30
0.0
   0
SEQEND
   5
1C2
100
AcDbEntity
   8
LAYER0
   6
CONTINUOUS
   0
POLYLINE
   5
1C3
100
AcDbEntity
   8
LAYER0
   6
CONTINUOUS
  62
      9
100
AcDb2dPolyline
  66
      1
  10
0.0
  20
0.0
  30
0.0
  70
      1
  75
      5
   0
VERTEX
   5
1C4
100
AcDbEntity
   8
LAYER0
   6
CONTINUOUS
  62
      9
100
AcDbVertex
100
AcDb2dVertex
  10
4.12901
  20
-3.85364
  30
0.0
   0
VERTEX
   5
1C5
100
AcDbEntity
   8
LAYER0
   6
CONTINUOUS
  62
      9
100
AcDbVertex
100
AcDb2dVertex
  10
4.06651
  20
-3.74539
  30
0.0
   0
VERTEX
   5
1C6
100
AcDbEntity
   8
LAYER0
   6
CONTINUOUS
  62
      9
100
AcDbVertex
100
AcDb2dVertex
  10
4.12901
  20
-4.74539
  30
0.0
   0
VERTEX
   5
1C7
100
AcDbEntity
   8
LAYER0
   6
CONTINUOUS
  62
      9
100
AcDbVertex
100
AcDb2dVertex
  10
4.19151
  20
-4.63714
  30
0.0
   0
SEQEND
   5
1C8
100
AcDbEntity
   8
LAYER0
   6
CONTINUOUS
   0
POLYLINE
   5
1C9
100
AcDbEntity
   8
LAYER0
   6
CONTINUOUS
  62
      9
100
AcDb2dPolyline
  66
      1
  10
0.0
  20
0.0
  30
0.0
  70
      1
  75
      5
   0
VERTEX
   5
1CA
100
AcDbEntity
   8
LAYER0
   6
CONTINUOUS
  62
      9
100
AcDbVertex
100
AcDb2dVertex
  10
4.12901
  20
-4.74539
  30
0.0
   0
VERTEX
   5
1CB
100
AcDbEntity
   8
LAYER0
   6
CONTINUOUS
  62
      9
100
AcDbVertex
100
AcDb2dVertex
  10
4.06651
  20
-4.63714
  30
0.0
   0
VERTEX
   5
1CC
100
AcDbEntity
   8
LAYER0
   6
CONTINUOUS
  62
      9
100
AcDbVertex
100
AcDb2dVertex
  10
4.00401
  20
-3.85365
  30
0.0
   0
VERTEX
   5
1CD
100
AcDbEntity
   8
LAYER0
   6
CONTINUOUS
  62
      9
100
AcDbVertex
100
AcDb2dVertex
  10
4.06651
  20
-3.7454
  30
0.0
   0
SEQEND
   5
1CE
100
AcDbEntity
   8
LAYER0
   6
CONTINUOUS
   0
POLYLINE
   5
1CF
100
AcDbEntity
   8
LAYER0
   6
CONTINUOUS
  62
      9
100
AcDb2dPolyline
  66
      1
  10
0.0
  20
0.0
  30
0.0
  70
      1
  75
      5
   0
VERTEX
   5
1D0
100
AcDbEntity
   8
LAYER0
   6
CONTINUOUS
  62
      9
100
AcDbVertex
100
AcDb2dVertex
  10
4.00401
  20
-3.85365
  30
0.0
   0
VERTEX
   5
1D1
100
AcDbEntity
   8
LAYER0
   6
CONTINUOUS
  62
      9
100
AcDbVertex
100
AcDb2dVertex
  10
3.94151
  20
-3.7454
  30
0.0
   0
VERTEX
   5
1D2
100
AcDbEntity
   8
LAYER0
   6
CONTINUOUS
  62
      9
100
AcDbVertex
100
AcDb2dVertex
  10
4.00401
  20
-4.7454
  30
0.0
   0
VERTEX
   5
1D3
100
AcDbEntity
   8
LAYER0
   6
CONTINUOUS
  62
      9
100
AcDbVertex
100
AcDb2dVertex
  10
4.06651
  20
-4.63715
  30
0.0
   0
SEQEND
   5
1D4
100
AcDbEntity
   8
LAYER0
   6
CONTINUOUS
   0
POLYLINE
   5
1D5
100
AcDbEntity
   8
LAYER0
   6
CONTINUOUS
  62
      9
100
AcDb2dPolyline
  66
      1
  10
0.0
  20
0.0
  30
0.0
  70
      1
  75
      5
   0
VERTEX
   5
1D6
100
AcDbEntity
   8
LAYER0
   6
CONTINUOUS
  62
      9
100
AcDbVertex
100
AcDb2dVertex
  10
4.00401
  20
-4.7454
  30
0.0
   0
VERTEX
   5
1D7
100
AcDbEntity
   8
LAYER0
   6
CONTINUOUS
  62
      9
100
AcDbVertex
100
AcDb2dVertex
  10
3.94151
  20
-4.63715
  30
0.0
   0
VERTEX
   5
1D8
100
AcDbEntity
   8
LAYER0
   6
CONTINUOUS
  62
      9
100
AcDbVertex
100
AcDb2dVertex
  10
3.87901
  20
-3.85366
  30
0.0
   0
VERTEX
   5
1D9
100
AcDbEntity
   8
LAYER0
   6
CONTINUOUS
  62
      9
100
AcDbVertex
100
AcDb2dVertex
  10
3.94151
  20
-3.74541
  30
0.0
   0
SEQEND
   5
1DA
100
AcDbEntity
   8
LAYER0
   6
CONTINUOUS
   0
POLYLINE
   5
1DB
100
AcDbEntity
   8
LAYER0
   6
CONTINUOUS
  62
      9
100
AcDb2dPolyline
  66
      1
  10
0.0
  20
0.0
  30
0.0
  70
      1
  75
      5
   0
VERTEX
   5
1DC
100
AcDbEntity
   8
LAYER0
   6
CONTINUOUS
  62
      9
100
AcDbVertex
100
AcDb2dVertex
  10
3.87901
  20
-3.85366
  30
0.0
   0
VERTEX
   5
1DD
100
AcDbEntity
   8
LAYER0
   6
CONTINUOUS
  62
      9
100
AcDbVertex
100
AcDb2dVertex
  10
3.81651
  20
-3.74541
  30
0.0
   0
VERTEX
   5
1DE
100
AcDbEntity
   8
LAYER0
   6
CONTINUOUS
  62
      9
100
AcDbVertex
100
AcDb2dVertex
  10
3.87901
  20
-4.74541
  30
0.0
   0
VERTEX
   5
1DF
100
AcDbEntity
   8
LAYER0
   6
CONTINUOUS
  62
      9
100
AcDbVertex
100
AcDb2dVertex
  10
3.94151
  20
-4.63716
  30
0.0
   0
SEQEND
   5
1E0
100
AcDbEntity
   8
LAYER0
   6
CONTINUOUS
   0
POLYLINE
   5
1E1
100
AcDbEntity
   8
LAYER0
   6
CONTINUOUS
  62
      9
100
AcDb2dPolyline
  66
      1
  10
0.0
  20
0.0
  30
0.0
  70
      1
  75
      5
   0
VERTEX
   5
1E2
100
AcDbEntity
   8
LAYER0
   6
CONTINUOUS
  62
      9
100
AcDbVertex
100
AcDb2dVertex
  10
3.87901
  20
-4.74541
  30
0.0
   0
VERTEX
   5
1E3
100
AcDbEntity
   8
LAYER0
   6
CONTINUOUS
  62
      9
100
AcDbVertex
100
AcDb2dVertex
  10
3.81651
  20
-4.63716
  30
0.0
   0
VERTEX
   5
1E4
100
AcDbEntity
   8
LAYER0
   6
CONTINUOUS
  62
      9
100
AcDbVertex
100
AcDb2dVertex
  10
3.75401
  20
-3.85367
  30
0.0
   0
VERTEX
   5
1E5
100
AcDbEntity
   8
LAYER0
   6
CONTINUOUS
  62
      9
100
AcDbVertex
100
AcDb2dVertex
  10
3.81651
  20
-3.74542
  30
0.0
   0
SEQEND
   5
1E6
100
AcDbEntity
   8
LAYER0
   6
CONTINUOUS
   0
POLYLINE
   5
1E7
100
AcDbEntity
   8
LAYER0
   6
CONTINUOUS
  62
      9
100
AcDb2dPolyline
  66
      1
  10
0.0
  20
0.0
  30
0.0
  70
      1
  75
      5
   0
VERTEX
   5
1E8
100
AcDbEntity
   8
LAYER0
   6
CONTINUOUS
  62
      9
100
AcDbVertex
100
AcDb2dVertex
  10
3.75401
  20
-3.85367
  30
0.0
   0
VERTEX
   5
1E9
100
AcDbEntity
   8
LAYER0
   6
CONTINUOUS
  62
      9
100
AcDbVertex
100
AcDb2dVertex
  10
3.69151
  20
-3.74542
  30
0.0
   0
VERTEX
   5
1EA
100
AcDbEntity
   8
LAYER0
   6
CONTINUOUS
  62
      9
100
AcDbVertex
100
AcDb2dVertex
  10
3.75401
  20
-4.74542
  30
0.0
   0
VERTEX
   5
1EB
100
AcDbEntity
   8
LAYER0
   6
CONTINUOUS
  62
      9
100
AcDbVertex
100
AcDb2dVertex
  10
3.81651
  20
-4.63717
  30
0.0
   0
SEQEND
   5
1EC
100
AcDbEntity
   8
LAYER0
   6
CONTINUOUS
   0
POLYLINE
   5
1ED
100
AcDbEntity
   8
LAYER0
   6
CONTINUOUS
  62
      9
100
AcDb2dPolyline
  66
      1
  10
0.0
  20
0.0
  30
0.0
  70
      1
  75
      5
   0
VERTEX
   5
1EE
100
AcDbEntity
   8
LAYER0
   6
CONTINUOUS
  62
      9
100
AcDbVertex
100
AcDb2dVertex
  10
3.75401
  20
-4.74542
  30
0.0
   0
VERTEX
   5
1EF
100
AcDbEntity
   8
LAYER0
   6
CONTINUOUS
  62
      9
100
AcDbVertex
100
AcDb2dVertex
  10
3.69151
  20
-4.63717
  30
0.0
   0
VERTEX
   5
1F0
100
AcDbEntity
   8
LAYER0
   6
CONTINUOUS
  62
      9
100
AcDbVertex
100
AcDb2dVertex
  10
3.62901
  20
-3.85368
  30
0.0
   0
VERTEX
   5
1F1
100
AcDbEntity
   8
LAYER0
   6
CONTINUOUS
  62
      9
100
AcDbVertex
100
AcDb2dVertex
  10
3.69151
  20
-3.74543
  30
0.0
   0
SEQEND
   5
1F2
100
AcDbEntity
   8
LAYER0
   6
CONTINUOUS
   0
POLYLINE
   5
1F3
100
AcDbEntity
   8
LAYER0
   6
CONTINUOUS
  62
      9
100
AcDb2dPolyline
  66
      1
  10
0.0
  20
0.0
  30
0.0
  70
      1
  75
      5
   0
VERTEX
   5
1F4
100
AcDbEntity
   8
LAYER0
   6
CONTINUOUS
  62
      9
100
AcDbVertex
100
AcDb2dVertex
  10
3.62901
  20
-3.85368
  30
0.0
   0
VERTEX
   5
1F5
100
AcDbEntity
   8
LAYER0
   6
CONTINUOUS
  62
      9
100
AcDbVertex
100
AcDb2dVertex
  10
3.56651
  20
-3.74543
  30
0.0
   0
VERTEX
   5
1F6
100
AcDbEntity
   8
LAYER0
   6
CONTINUOUS
  62
      9
100
AcDbVertex
100
AcDb2dVertex
  10
3.62901
  20
-4.74543
  30
0.0
   0
VERTEX
   5
1F7
100
AcDbEntity
   8
LAYER0
   6
CONTINUOUS
  62
      9
100
AcDbVertex
100
AcDb2dVertex
  10
3.69151
  20
-4.63718
  30
0.0
   0
SEQEND
   5
1F8
100
AcDbEntity
   8
LAYER0
   6
CONTINUOUS
   0
POLYLINE
   5
1F9
100
AcDbEntity
   8
LAYER0
   6
CONTINUOUS
  62
      9
100
AcDb2dPolyline
  66
      1
  10
0.0
  20
0.0
  30
0.0
  70
      1
  75
      5
   0
VERTEX
   5
1FA
100
AcDbEntity
   8
LAYER0
   6
CONTINUOUS
  62
      9
100
AcDbVertex
100
AcDb2dVertex
  10
3.62901
  20
-4.74543
  30
0.0
   0
VERTEX
   5
1FB
100
AcDbEntity
   8
LAYER0
   6
CONTINUOUS
  62
      9
100
AcDbVertex
100
AcDb2dVertex
  10
3.56651
  20
-4.63718
  30
0.0
   0
VERTEX
   5
1FC
100
AcDbEntity
   8
LAYER0
   6
CONTINUOUS
  62
      9
100
AcDbVertex
100
AcDb2dVertex
  10
3.50401
  20
-3.85369
  30
0.0
   0
VERTEX
   5
1FD
100
AcDbEntity
   8
LAYER0
   6
CONTINUOUS
  62
      9
100
AcDbVertex
100
AcDb2dVertex
  10
3.56651
  20
-3.74544
  30
0.0
   0
SEQEND
   5
1FE
100
AcDbEntity
   8
LAYER0
   6
CONTINUOUS
   0
POLYLINE
   5
1FF
100
AcDbEntity
   8
LAYER0
   6
CONTINUOUS
  62
      9
100
AcDb2dPolyline
  66
      1
  10
0.0
  20
0.0
  30
0.0
  70
      1
  75
      5
   0
VERTEX
   5
200
100
AcDbEntity
   8
LAYER0
   6
CONTINUOUS
  62
      9
100
AcDbVertex
100
AcDb2dVertex
  10
3.50401
  20
-3.85369
  30
0.0
   0
VERTEX
   5
201
100
AcDbEntity
   8
LAYER0
   6
CONTINUOUS
  62
      9
100
AcDbVertex
100
AcDb2dVertex
  10
3.44151
  20
-3.74544
  30
0.0
   0
VERTEX
   5
202
100
AcDbEntity
   8
LAYER0
   6
CONTINUOUS
  62
      9
100
AcDbVertex
100
AcDb2dVertex
  10
3.50401
  20
-4.74544
  30
0.0
   0
VERTEX
   5
203
100
AcDbEntity
   8
LAYER0
   6
CONTINUOUS
  62
      9
100
AcDbVertex
100
AcDb2dVertex
  10
3.56651
  20
-4.63719
  30
0.0
   0
SEQEND
   5
204
100
AcDbEntity
   8
LAYER0
   6
CONTINUOUS
   0
POLYLINE
   5
205
100
AcDbEntity
   8
LAYER0
   6
CONTINUOUS
  62
      9
100
AcDb2dPolyline
  66
      1
  10
0.0
  20
0.0
  30
0.0
  70
      1
  75
      5
   0
VERTEX
   5
206
100
AcDbEntity
   8
LAYER0
   6
CONTINUOUS
  62
      9
100
AcDbVertex
100
AcDb2dVertex
  10
3.50401
  20
-4.74544
  30
0.0
   0
VERTEX
   5
207
100
AcDbEntity
   8
LAYER0
   6
CONTINUOUS
  62
      9
100
AcDbVertex
100
AcDb2dVertex
  10
3.44151
  20
-4.63719
  30
0.0
   0
VERTEX
   5
208
100
AcDbEntity
   8
LAYER0
   6
CONTINUOUS
  62
      9
100
AcDbVertex
100
AcDb2dVertex
  10
3.37901
  20
-3.8537
  30
0.0
   0
VERTEX
   5
209
100
AcDbEntity
   8
LAYER0
   6
CONTINUOUS
  62
      9
100
AcDbVertex
100
AcDb2dVertex
  10
3.44151
  20
-3.74545
  30
0.0
   0
SEQEND
   5
20A
100
AcDbEntity
   8
LAYER0
   6
CONTINUOUS
   0
POLYLINE
   5
20B
100
AcDbEntity
   8
LAYER0
   6
CONTINUOUS
  62
      9
100
AcDb2dPolyline
  66
      1
  10
0.0
  20
0.0
  30
0.0
  70
      1
  75
      5
   0
VERTEX
   5
20C
100
AcDbEntity
   8
LAYER0
   6
CONTINUOUS
  62
      9
100
AcDbVertex
100
AcDb2dVertex
  10
3.37901
  20
-3.8537
  30
0.0
   0
VERTEX
   5
20D
100
AcDbEntity
   8
LAYER0
   6
CONTINUOUS
  62
      9
100
AcDbVertex
100
AcDb2dVertex
  10
3.31651
  20
-3.74545
  30
0.0
   0
VERTEX
   5
20E
100
AcDbEntity
   8
LAYER0
   6
CONTINUOUS
  62
      9
100
AcDbVertex
100
AcDb2dVertex
  10
3.37901
  20
-4.74545
  30
0.0
   0
VERTEX
   5
20F
100
AcDbEntity
   8
LAYER0
   6
CONTINUOUS
  62
      9
100
AcDbVertex
100
AcDb2dVertex
  10
3.44151
  20
-4.6372
  30
0.0
   0
SEQEND
   5
210
100
AcDbEntity
   8
LAYER0
   6
CONTINUOUS
   0
POLYLINE
   5
211
100
AcDbEntity
   8
LAYER0
   6
CONTINUOUS
  62
      9
100
AcDb2dPolyline
  66
      1
  10
0.0
  20
0.0
  30
0.0
  70
      1
  75
      5
   0
VERTEX
   5
212
100
AcDbEntity
   8
LAYER0
   6
CONTINUOUS
  62
      9
100
AcDbVertex
100
AcDb2dVertex
  10
3.37901
  20
-4.74545
  30
0.0
   0
VERTEX
   5
213
100
AcDbEntity
   8
LAYER0
   6
CONTINUOUS
  62
      9
100
AcDbVertex
100
AcDb2dVertex
  10
3.31651
  20
-4.6372
  30
0.0
   0
VERTEX
   5
214
100
AcDbEntity
   8
LAYER0
   6
CONTINUOUS
  62
      9
100
AcDbVertex
100
AcDb2dVertex
  10
3.25401
  20
-3.85371
  30
0.0
   0
VERTEX
   5
215
100
AcDbEntity
   8
LAYER0
   6
CONTINUOUS
  62
      9
100
AcDbVertex
100
AcDb2dVertex
  10
3.31651
  20
-3.74546
  30
0.0
   0
SEQEND
   5
216
100
AcDbEntity
   8
LAYER0
   6
CONTINUOUS
   0
POLYLINE
   5
217
100
AcDbEntity
   8
LAYER0
   6
CONTINUOUS
  62
      9
100
AcDb2dPolyline
  66
      1
  10
0.0
  20
0.0
  30
0.0
  70
      1
  75
      5
   0
VERTEX
   5
218
100
AcDbEntity
   8
LAYER0
   6
CONTINUOUS
  62
      9
100
AcDbVertex
100
AcDb2dVertex
  10
3.25401
  20
-3.85371
  30
0.0
   0
VERTEX
   5
219
100
AcDbEntity
   8
LAYER0
   6
CONTINUOUS
  62
      9
100
AcDbVertex
100
AcDb2dVertex
  10
3.19151
  20
-3.74546
  30
0.0
   0
VERTEX
   5
21A
100
AcDbEntity
   8
LAYER0
   6
CONTINUOUS
  62
      9
100
AcDbVertex
100
AcDb2dVertex
  10
3.25401
  20
-4.74546
  30
0.0
   0
VERTEX
   5
21B
100
AcDbEntity
   8
LAYER0
   6
CONTINUOUS
  62
      9
100
AcDbVertex
100
AcDb2dVertex
  10
3.31651
  20
-4.63721
  30
0.0
   0
SEQEND
   5
21C
100
AcDbEntity
   8
LAYER0
   6
CONTINUOUS
   0
POLYLINE
   5
21D
100
AcDbEntity
   8
LAYER0
   6
CONTINUOUS
  62
      9
100
AcDb2dPolyline
  66
      1
  10
0.0
  20
0.0
  30
0.0
  70
      1
  75
      5
   0
VERTEX
   5
21E
100
AcDbEntity
   8
LAYER0
   6
CONTINUOUS
  62
      9
100
AcDbVertex
100
AcDb2dVertex
  10
3.25401
  20
-4.74546
  30
0.0
   0
VERTEX
   5
21F
100
AcDbEntity
   8
LAYER0
   6
CONTINUOUS
  62
      9
100
AcDbVertex
100
AcDb2dVertex
  10
3.19151
  20
-4.63721
  30
0.0
   0
VERTEX
   5
220
100
AcDbEntity
   8
LAYER0
   6
CONTINUOUS
  62
      9
100
AcDbVertex
100
AcDb2dVertex
  10
3.12901
  20
-3.85372
  30
0.0
   0
VERTEX
   5
221
100
AcDbEntity
   8
LAYER0
   6
CONTINUOUS
  62
      9
100
AcDbVertex
100
AcDb2dVertex
  10
3.19151
  20
-3.74547
  30
0.0
   0
SEQEND
   5
222
100
AcDbEntity
   8
LAYER0
   6
CONTINUOUS
   0
POLYLINE
   5
223
100
AcDbEntity
   8
LAYER0
   6
CONTINUOUS
  62
      9
100
AcDb2dPolyline
  66
      1
  10
0.0
  20
0.0
  30
0.0
  70
      1
  75
      5
   0
VERTEX
   5
224
100
AcDbEntity
   8
LAYER0
   6
CONTINUOUS
  62
      9
100
AcDbVertex
100
AcDb2dVertex
  10
3.12901
  20
-3.85372
  30
0.0
   0
VERTEX
   5
225
100
AcDbEntity
   8
LAYER0
   6
CONTINUOUS
  62
      9
100
AcDbVertex
100
AcDb2dVertex
  10
3.06651
  20
-3.74547
  30
0.0
   0
VERTEX
   5
226
100
AcDbEntity
   8
LAYER0
   6
CONTINUOUS
  62
      9
100
AcDbVertex
100
AcDb2dVertex
  10
3.12901
  20
-4.74547
  30
0.0
   0
VERTEX
   5
227
100
AcDbEntity
   8
LAYER0
   6
CONTINUOUS
  62
      9
100
AcDbVertex
100
AcDb2dVertex
  10
3.19151
  20
-4.63722
  30
0.0
   0
SEQEND
   5
228
100
AcDbEntity
   8
LAYER0
   6
CONTINUOUS
   0
POLYLINE
   5
229
100
AcDbEntity
   8
LAYER0
   6
CONTINUOUS
  62
      9
100
AcDb2dPolyline
  66
      1
  10
0.0
  20
0.0
  30
0.0
  70
      1
  75
      5
   0
VERTEX
   5
22A
100
AcDbEntity
   8
LAYER0
   6
CONTINUOUS
  62
      9
100
AcDbVertex
100
AcDb2dVertex
  10
3.12901
  20
-4.74547
  30
0.0
   0
VERTEX
   5
22B
100
AcDbEntity
   8
LAYER0
   6
CONTINUOUS
  62
      9
100
AcDbVertex
100
AcDb2dVertex
  10
3.06651
  20
-4.63722
  30
0.0
   0
VERTEX
   5
22C
100
AcDbEntity
   8
LAYER0
   6
CONTINUOUS
  62
      9
100
AcDbVertex
100
AcDb2dVertex
  10
3.00401
  20
-3.85373
  30
0.0
   0
VERTEX
   5
22D
100
AcDbEntity
   8
LAYER0
   6
CONTINUOUS
  62
      9
100
AcDbVertex
100
AcDb2dVertex
  10
3.06651
  20
-3.74548
  30
0.0
   0
SEQEND
   5
22E
100
AcDbEntity
   8
LAYER0
   6
CONTINUOUS
   0
POLYLINE
   5
22F
100
AcDbEntity
   8
LAYER0
   6
CONTINUOUS
  62
      9
100
AcDb2dPolyline
  66
      1
  10
0.0
  20
0.0
  30
0.0
  70
      1
  75
      5
   0
VERTEX
   5
230
100
AcDbEntity
   8
LAYER0
   6
CONTINUOUS
  62
      9
100
AcDbVertex
100
AcDb2dVertex
  10
3.00401
  20
-3.85373
  30
0.0
   0
VERTEX
   5
231
100
AcDbEntity
   8
LAYER0
   6
CONTINUOUS
  62
      9
100
AcDbVertex
100
AcDb2dVertex
  10
2.94151
  20
-3.74548
  30
0.0
   0
VERTEX
   5
232
100
AcDbEntity
   8
LAYER0
   6
CONTINUOUS
  62
      9
100
AcDbVertex
100
AcDb2dVertex
  10
3.00401
  20
-4.74548
  30
0.0
   0
VERTEX
   5
233
100
AcDbEntity
   8
LAYER0
   6
CONTINUOUS
  62
      9
100
AcDbVertex
100
AcDb2dVertex
  10
3.06651
  20
-4.63723
  30
0.0
   0
SEQEND
   5
234
100
AcDbEntity
   8
LAYER0
   6
CONTINUOUS
   0
POLYLINE
   5
235
100
AcDbEntity
   8
LAYER0
   6
CONTINUOUS
  62
      9
100
AcDb2dPolyline
  66
      1
  10
0.0
  20
0.0
  30
0.0
  70
      1
  75
      5
   0
VERTEX
   5
236
100
AcDbEntity
   8
LAYER0
   6
CONTINUOUS
  62
      9
100
AcDbVertex
100
AcDb2dVertex
  10
3.00401
  20
-4.74548
  30
0.0
   0
VERTEX
   5
237
100
AcDbEntity
   8
LAYER0
   6
CONTINUOUS
  62
      9
100
AcDbVertex
100
AcDb2dVertex
  10
2.94151
  20
-4.63723
  30
0.0
   0
VERTEX
   5
238
100
AcDbEntity
   8
LAYER0
   6
CONTINUOUS
  62
      9
100
AcDbVertex
100
AcDb2dVertex
  10
2.87901
  20
-3.85374
  30
0.0
   0
VERTEX
   5
239
100
AcDbEntity
   8
LAYER0
   6
CONTINUOUS
  62
      9
100
AcDbVertex
100
AcDb2dVertex
  10
2.94151
  20
-3.74549
  30
0.0
   0
SEQEND
   5
23A
100
AcDbEntity
   8
LAYER0
   6
CONTINUOUS
   0
POLYLINE
   5
23B
100
AcDbEntity
   8
LAYER0
   6
CONTINUOUS
  62
      9
100
AcDb2dPolyline
  66
      1
  10
0.0
  20
0.0
  30
0.0
  70
      1
  75
      5
   0
VERTEX
   5
23C
100
AcDbEntity
   8
LAYER0
   6
CONTINUOUS
  62
      9
100
AcDbVertex
100
AcDb2dVertex
  10
2.87901
  20
-3.85374
  30
0.0
   0
VERTEX
   5
23D
100
AcDbEntity
   8
LAYER0
   6
CONTINUOUS
  62
      9
100
AcDbVertex
100
AcDb2dVertex
  10
2.81651
  20
-3.74549
  30
0.0
   0
VERTEX
   5
23E
100
AcDbEntity
   8
LAYER0
   6
CONTINUOUS
  62
      9
100
AcDbVertex
100
AcDb2dVertex
  10
2.87901
  20
-4.74549
  30
0.0
   0
VERTEX
   5
23F
100
AcDbEntity
   8
LAYER0
   6
CONTINUOUS
  62
      9
100
AcDbVertex
100
AcDb2dVertex
  10
2.94151
  20
-4.63724
  30
0.0
   0
SEQEND
   5
240
100
AcDbEntity
   8
LAYER0
   6
CONTINUOUS
   0
POLYLINE
   5
241
100
AcDbEntity
   8
LAYER0
   6
CONTINUOUS
  62
      9
100
AcDb2dPolyline
  66
      1
  10
0.0
  20
0.0
  30
0.0
  70
      1
  75
      5
   0
VERTEX
   5
242
100
AcDbEntity
   8
LAYER0
   6
CONTINUOUS
  62
      9
100
AcDbVertex
100
AcDb2dVertex
  10
2.87901
  20
-4.74549
  30
0.0
   0
VERTEX
   5
243
100
AcDbEntity
   8
LAYER0
   6
CONTINUOUS
  62
      9
100
AcDbVertex
100
AcDb2dVertex
  10
2.81651
  20
-4.63724
  30
0.0
   0
VERTEX
   5
244
100
AcDbEntity
   8
LAYER0
   6
CONTINUOUS
  62
      9
100
AcDbVertex
100
AcDb2dVertex
  10
2.75401
  20
-3.85375
  30
0.0
   0
VERTEX
   5
245
100
AcDbEntity
   8
LAYER0
   6
CONTINUOUS
  62
      9
100
AcDbVertex
100
AcDb2dVertex
  10
2.81651
  20
-3.7455
  30
0.0
   0
SEQEND
   5
246
100
AcDbEntity
   8
LAYER0
   6
CONTINUOUS
   0
POLYLINE
   5
247
100
AcDbEntity
   8
LAYER0
   6
CONTINUOUS
  62
      9
100
AcDb2dPolyline
  66
      1
  10
0.0
  20
0.0
  30
0.0
  70
      1
  75
      5
   0
VERTEX
   5
248
100
AcDbEntity
   8
LAYER0
   6
CONTINUOUS
  62
      9
100
AcDbVertex
100
AcDb2dVertex
  10
2.75401
  20
-3.85375
  30
0.0
   0
VERTEX
   5
249
100
AcDbEntity
   8
LAYER0
   6
CONTINUOUS
  62
      9
100
AcDbVertex
100
AcDb2dVertex
  10
2.69151
  20
-3.7455
  30
0.0
   0
VERTEX
   5
24A
100
AcDbEntity
   8
LAYER0
   6
CONTINUOUS
  62
      9
100
AcDbVertex
100
AcDb2dVertex
  10
2.75401
  20
-4.7455
  30
0.0
   0
VERTEX
   5
24B
100
AcDbEntity
   8
LAYER0
   6
CONTINUOUS
  62
      9
100
AcDbVertex
100
AcDb2dVertex
  10
2.81651
  20
-4.63725
  30
0.0
   0
SEQEND
   5
24C
100
AcDbEntity
   8
LAYER0
   6
CONTINUOUS
   0
POLYLINE
   5
24D
100
AcDbEntity
   8
LAYER0
   6
CONTINUOUS
  62
      9
100
AcDb2dPolyline
  66
      1
  10
0.0
  20
0.0
  30
0.0
  70
      1
  75
      5
   0
VERTEX
   5
24E
100
AcDbEntity
   8
LAYER0
   6
CONTINUOUS
  62
      9
100
AcDbVertex
100
AcDb2dVertex
  10
2.75401
  20
-4.7455
  30
0.0
   0
VERTEX
   5
24F
100
AcDbEntity
   8
LAYER0
   6
CONTINUOUS
  62
      9
100
AcDbVertex
100
AcDb2dVertex
  10
2.69151
  20
-4.63725
  30
0.0
   0
VERTEX
   5
250
100
AcDbEntity
   8
LAYER0
   6
CONTINUOUS
  62
      9
100
AcDbVertex
100
AcDb2dVertex
  10
2.62901
  20
-3.85376
  30
0.0
   0
VERTEX
   5
251
100
AcDbEntity
   8
LAYER0
   6
CONTINUOUS
  62
      9
100
AcDbVertex
100
AcDb2dVertex
  10
2.69151
  20
-3.74551
  30
0.0
   0
SEQEND
   5
252
100
AcDbEntity
   8
LAYER0
   6
CONTINUOUS
   0
POLYLINE
   5
253
100
AcDbEntity
   8
LAYER0
   6
CONTINUOUS
  62
      9
100
AcDb2dPolyline
  66
      1
  10
0.0
  20
0.0
  30
0.0
  70
      1
  75
      5
   0
VERTEX
   5
254
100
AcDbEntity
   8
LAYER0
   6
CONTINUOUS
  62
      9
100
AcDbVertex
100
AcDb2dVertex
  10
2.62901
  20
-3.85376
  30
0.0
   0
VERTEX
   5
255
100
AcDbEntity
   8
LAYER0
   6
CONTINUOUS
  62
      9
100
AcDbVertex
100
AcDb2dVertex
  10
2.56651
  20
-3.74551
  30
0.0
   0
VERTEX
   5
256
100
AcDbEntity
   8
LAYER0
   6
CONTINUOUS
  62
      9
100
AcDbVertex
100
AcDb2dVertex
  10
2.62901
  20
-4.74551
  30
0.0
   0
VERTEX
   5
257
100
AcDbEntity
   8
LAYER0
   6
CONTINUOUS
  62
      9
100
AcDbVertex
100
AcDb2dVertex
  10
2.69151
  20
-4.63726
  30
0.0
   0
SEQEND
   5
258
100
AcDbEntity
   8
LAYER0
   6
CONTINUOUS
   0
POLYLINE
   5
259
100
AcDbEntity
   8
LAYER0
   6
CONTINUOUS
  62
      9
100
AcDb2dPolyline
  66
      1
  10
0.0
  20
0.0
  30
0.0
  70
      1
  75
      5
   0
VERTEX
   5
25A
100
AcDbEntity
   8
LAYER0
   6
CONTINUOUS
  62
      9
100
AcDbVertex
100
AcDb2dVertex
  10
2.62901
  20
-4.74551
  30
0.0
   0
VERTEX
   5
25B
100
AcDbEntity
   8
LAYER0
   6
CONTINUOUS
  62
      9
100
AcDbVertex
100
AcDb2dVertex
  10
2.56651
  20
-4.63726
  30
0.0
   0
VERTEX
   5
25C
100
AcDbEntity
   8
LAYER0
   6
CONTINUOUS
  62
      9
100
AcDbVertex
100
AcDb2dVertex
  10
2.50401
  20
-3.85377
  30
0.0
   0
VERTEX
   5
25D
100
AcDbEntity
   8
LAYER0
   6
CONTINUOUS
  62
      9
100
AcDbVertex
100
AcDb2dVertex
  10
2.56651
  20
-3.74552
  30
0.0
   0
SEQEND
   5
25E
100
AcDbEntity
   8
LAYER0
   6
CONTINUOUS
   0
POLYLINE
   5
25F
100
AcDbEntity
   8
LAYER0
   6
CONTINUOUS
  62
      9
100
AcDb2dPolyline
  66
      1
  10
0.0
  20
0.0
  30
0.0
  70
      1
  75
      5
   0
VERTEX
   5
260
100
AcDbEntity
   8
LAYER0
   6
CONTINUOUS
  62
      9
100
AcDbVertex
100
AcDb2dVertex
  10
2.50401
  20
-3.85377
  30
0.0
   0
VERTEX
   5
261
100
AcDbEntity
   8
LAYER0
   6
CONTINUOUS
  62
      9
100
AcDbVertex
100
AcDb2dVertex
  10
2.44151
  20
-3.74552
  30
0.0
   0
VERTEX
   5
262
100
AcDbEntity
   8
LAYER0
   6
CONTINUOUS
  62
      9
100
AcDbVertex
100
AcDb2dVertex
  10
2.50401
  20
-4.74552
  30
0.0
   0
VERTEX
   5
263
100
AcDbEntity
   8
LAYER0
   6
CONTINUOUS
  62
      9
100
AcDbVertex
100
AcDb2dVertex
  10
2.56651
  20
-4.63727
  30
0.0
   0
SEQEND
   5
264
100
AcDbEntity
   8
LAYER0
   6
CONTINUOUS
   0
POLYLINE
   5
265
100
AcDbEntity
   8
LAYER0
   6
CONTINUOUS
  62
      9
100
AcDb2dPolyline
  66
      1
  10
0.0
  20
0.0
  30
0.0
  70
      1
  75
      5
   0
VERTEX
   5
266
100
AcDbEntity
   8
LAYER0
   6
CONTINUOUS
  62
      9
100
AcDbVertex
100
AcDb2dVertex
  10
2.50401
  20
-4.74552
  30
0.0
   0
VERTEX
   5
267
100
AcDbEntity
   8
LAYER0
   6
CONTINUOUS
  62
      9
100
AcDbVertex
100
AcDb2dVertex
  10
2.44151
  20
-4.63727
  30
0.0
   0
VERTEX
   5
268
100
AcDbEntity
   8
LAYER0
   6
CONTINUOUS
  62
      9
100
AcDbVertex
100
AcDb2dVertex
  10
2.37901
  20
-3.85378
  30
0.0
   0
VERTEX
   5
269
100
AcDbEntity
   8
LAYER0
   6
CONTINUOUS
  62
      9
100
AcDbVertex
100
AcDb2dVertex
  10
2.44151
  20
-3.74553
  30
0.0
   0
SEQEND
   5
26A
100
AcDbEntity
   8
LAYER0
   6
CONTINUOUS
   0
POLYLINE
   5
26B
100
AcDbEntity
   8
LAYER0
   6
CONTINUOUS
  62
      9
100
AcDb2dPolyline
  66
      1
  10
0.0
  20
0.0
  30
0.0
  70
      1
  75
      5
   0
VERTEX
   5
26C
100
AcDbEntity
   8
LAYER0
   6
CONTINUOUS
  62
      9
100
AcDbVertex
100
AcDb2dVertex
  10
2.37901
  20
-3.85378
  30
0.0
   0
VERTEX
   5
26D
100
AcDbEntity
   8
LAYER0
   6
CONTINUOUS
  62
      9
100
AcDbVertex
100
AcDb2dVertex
  10
2.31651
  20
-3.74553
  30
0.0
   0
VERTEX
   5
26E
100
AcDbEntity
   8
LAYER0
   6
CONTINUOUS
  62
      9
100
AcDbVertex
100
AcDb2dVertex
  10
2.37901
  20
-4.74553
  30
0.0
   0
VERTEX
   5
26F
100
AcDbEntity
   8
LAYER0
   6
CONTINUOUS
  62
      9
100
AcDbVertex
100
AcDb2dVertex
  10
2.44151
  20
-4.63728
  30
0.0
   0
SEQEND
   5
270
100
AcDbEntity
   8
LAYER0
   6
CONTINUOUS
   0
POLYLINE
   5
271
100
AcDbEntity
   8
LAYER0
   6
CONTINUOUS
  62
      9
100
AcDb2dPolyline
  66
      1
  10
0.0
  20
0.0
  30
0.0
  70
      1
  75
      5
   0
VERTEX
   5
272
100
AcDbEntity
   8
LAYER0
   6
CONTINUOUS
  62
      9
100
AcDbVertex
100
AcDb2dVertex
  10
2.37901
  20
-4.74553
  30
0.0
   0
VERTEX
   5
273
100
AcDbEntity
   8
LAYER0
   6
CONTINUOUS
  62
      9
100
AcDbVertex
100
AcDb2dVertex
  10
2.31651
  20
-4.63728
  30
0.0
   0
VERTEX
   5
274
100
AcDbEntity
   8
LAYER0
   6
CONTINUOUS
  62
      9
100
AcDbVertex
100
AcDb2dVertex
  10
2.25401
  20
-3.85379
  30
0.0
   0
VERTEX
   5
275
100
AcDbEntity
   8
LAYER0
   6
CONTINUOUS
  62
      9
100
AcDbVertex
100
AcDb2dVertex
  10
2.31651
  20
-3.74554
  30
0.0
   0
SEQEND
   5
276
100
AcDbEntity
   8
LAYER0
   6
CONTINUOUS
   0
POLYLINE
   5
277
100
AcDbEntity
   8
LAYER0
   6
CONTINUOUS
  62
      9
100
AcDb2dPolyline
  66
      1
  10
0.0
  20
0.0
  30
0.0
  70
      1
  75
      5
   0
VERTEX
   5
278
100
AcDbEntity
   8
LAYER0
   6
CONTINUOUS
  62
      9
100
AcDbVertex
100
AcDb2dVertex
  10
2.25401
  20
-3.85379
  30
0.0
   0
VERTEX
   5
279
100
AcDbEntity
   8
LAYER0
   6
CONTINUOUS
  62
      9
100
AcDbVertex
100
AcDb2dVertex
  10
2.19151
  20
-3.74554
  30
0.0
   0
VERTEX
   5
27A
100
AcDbEntity
   8
LAYER0
   6
CONTINUOUS
  62
      9
100
AcDbVertex
100
AcDb2dVertex
  10
2.25401
  20
-4.74554
  30
0.0
   0
VERTEX
   5
27B
100
AcDbEntity
   8
LAYER0
   6
CONTINUOUS
  62
      9
100
AcDbVertex
100
AcDb2dVertex
  10
2.31651
  20
-4.63729
  30
0.0
   0
SEQEND
   5
27C
100
AcDbEntity
   8
LAYER0
   6
CONTINUOUS
   0
POLYLINE
   5
27D
100
AcDbEntity
   8
LAYER0
   6
CONTINUOUS
  62
      9
100
AcDb2dPolyline
  66
      1
  10
0.0
  20
0.0
  30
0.0
  70
      1
  75
      5
   0
VERTEX
   5
27E
100
AcDbEntity
   8
LAYER0
   6
CONTINUOUS
  62
      9
100
AcDbVertex
100
AcDb2dVertex
  10
2.25401
  20
-4.74554
  30
0.0
   0
VERTEX
   5
27F
100
AcDbEntity
   8
LAYER0
   6
CONTINUOUS
  62
      9
100
AcDbVertex
100
AcDb2dVertex
  10
2.19151
  20
-4.63729
  30
0.0
   0
VERTEX
   5
280
100
AcDbEntity
   8
LAYER0
   6
CONTINUOUS
  62
      9
100
AcDbVertex
100
AcDb2dVertex
  10
2.12901
  20
-3.8538
  30
0.0
   0
VERTEX
   5
281
100
AcDbEntity
   8
LAYER0
   6
CONTINUOUS
  62
      9
100
AcDbVertex
100
AcDb2dVertex
  10
2.19151
  20
-3.74555
  30
0.0
   0
SEQEND
   5
282
100
AcDbEntity
   8
LAYER0
   6
CONTINUOUS
   0
POLYLINE
   5
283
100
AcDbEntity
   8
LAYER0
   6
CONTINUOUS
  62
      9
100
AcDb2dPolyline
  66
      1
  10
0.0
  20
0.0
  30
0.0
  70
      1
  75
      5
   0
VERTEX
   5
284
100
AcDbEntity
   8
LAYER0
   6
CONTINUOUS
  62
      9
100
AcDbVertex
100
AcDb2dVertex
  10
2.12901
  20
-3.8538
  30
0.0
   0
VERTEX
   5
285
100
AcDbEntity
   8
LAYER0
   6
CONTINUOUS
  62
      9
100
AcDbVertex
100
AcDb2dVertex
  10
2.06651
  20
-3.74555
  30
0.0
   0
VERTEX
   5
286
100
AcDbEntity
   8
LAYER0
   6
CONTINUOUS
  62
      9
100
AcDbVertex
100
AcDb2dVertex
  10
2.12901
  20
-4.74555
  30
0.0
   0
VERTEX
   5
287
100
AcDbEntity
   8
LAYER0
   6
CONTINUOUS
  62
      9
100
AcDbVertex
100
AcDb2dVertex
  10
2.19151
  20
-4.6373
  30
0.0
   0
SEQEND
   5
288
100
AcDbEntity
   8
LAYER0
   6
CONTINUOUS
   0
POLYLINE
   5
289
100
AcDbEntity
   8
LAYER0
   6
CONTINUOUS
  62
      9
100
AcDb2dPolyline
  66
      1
  10
0.0
  20
0.0
  30
0.0
  70
      1
  75
      5
   0
VERTEX
   5
28A
100
AcDbEntity
   8
LAYER0
   6
CONTINUOUS
  62
      9
100
AcDbVertex
100
AcDb2dVertex
  10
2.12901
  20
-4.74555
  30
0.0
   0
VERTEX
   5
28B
100
AcDbEntity
   8
LAYER0
   6
CONTINUOUS
  62
      9
100
AcDbVertex
100
AcDb2dVertex
  10
2.06651
  20
-4.6373
  30
0.0
   0
VERTEX
   5
28C
100
AcDbEntity
   8
LAYER0
   6
CONTINUOUS
  62
      9
100
AcDbVertex
100
AcDb2dVertex
  10
2.00401
  20
-3.85381
  30
0.0
   0
VERTEX
   5
28D
100
AcDbEntity
   8
LAYER0
   6
CONTINUOUS
  62
      9
100
AcDbVertex
100
AcDb2dVertex
  10
2.06651
  20
-3.74556
  30
0.0
   0
SEQEND
   5
28E
100
AcDbEntity
   8
LAYER0
   6
CONTINUOUS
   0
POLYLINE
   5
28F
100
AcDbEntity
   8
LAYER0
   6
CONTINUOUS
  62
      9
100
AcDb2dPolyline
  66
      1
  10
0.0
  20
0.0
  30
0.0
  70
      1
  75
      5
   0
VERTEX
   5
290
100
AcDbEntity
   8
LAYER0
   6
CONTINUOUS
  62
      9
100
AcDbVertex
100
AcDb2dVertex
  10
2.00401
  20
-3.85381
  30
0.0
   0
VERTEX
   5
291
100
AcDbEntity
   8
LAYER0
   6
CONTINUOUS
  62
      9
100
AcDbVertex
100
AcDb2dVertex
  10
1.94151
  20
-3.74556
  30
0.0
   0
VERTEX
   5
292
100
AcDbEntity
   8
LAYER0
   6
CONTINUOUS
  62
      9
100
AcDbVertex
100
AcDb2dVertex
  10
2.00401
  20
-4.74556
  30
0.0
   0
VERTEX
   5
293
100
AcDbEntity
   8
LAYER0
   6
CONTINUOUS
  62
      9
100
AcDbVertex
100
AcDb2dVertex
  10
2.06651
  20
-4.63731
  30
0.0
   0
SEQEND
   5
294
100
AcDbEntity
   8
LAYER0
   6
CONTINUOUS
   0
POLYLINE
   5
295
100
AcDbEntity
   8
LAYER0
   6
CONTINUOUS
  62
      9
100
AcDb2dPolyline
  66
      1
  10
0.0
  20
0.0
  30
0.0
  70
      1
  75
      5
   0
VERTEX
   5
296
100
AcDbEntity
   8
LAYER0
   6
CONTINUOUS
  62
      9
100
AcDbVertex
100
AcDb2dVertex
  10
2.00401
  20
-4.74556
  30
0.0
   0
VERTEX
   5
297
100
AcDbEntity
   8
LAYER0
   6
CONTINUOUS
  62
      9
100
AcDbVertex
100
AcDb2dVertex
  10
1.94151
  20
-4.63731
  30
0.0
   0
VERTEX
   5
298
100
AcDbEntity
   8
LAYER0
   6
CONTINUOUS
  62
      9
100
AcDbVertex
100
AcDb2dVertex
  10
1.87901
  20
-3.85382
  30
0.0
   0
VERTEX
   5
299
100
AcDbEntity
   8
LAYER0
   6
CONTINUOUS
  62
      9
100
AcDbVertex
100
AcDb2dVertex
  10
1.94151
  20
-3.74557
  30
0.0
   0
SEQEND
   5
29A
100
AcDbEntity
   8
LAYER0
   6
CONTINUOUS
   0
POLYLINE
   5
29B
100
AcDbEntity
   8
LAYER0
   6
CONTINUOUS
  62
      9
100
AcDb2dPolyline
  66
      1
  10
0.0
  20
0.0
  30
0.0
  70
      1
  75
      5
   0
VERTEX
   5
29C
100
AcDbEntity
   8
LAYER0
   6
CONTINUOUS
  62
      9
100
AcDbVertex
100
AcDb2dVertex
  10
1.87901
  20
-3.85382
  30
0.0
   0
VERTEX
   5
29D
100
AcDbEntity
   8
LAYER0
   6
CONTINUOUS
  62
      9
100
AcDbVertex
100
AcDb2dVertex
  10
1.81651
  20
-3.74557
  30
0.0
   0
VERTEX
   5
29E
100
AcDbEntity
   8
LAYER0
   6
CONTINUOUS
  62
      9
100
AcDbVertex
100
AcDb2dVertex
  10
1.87901
  20
-4.74557
  30
0.0
   0
VERTEX
   5
29F
100
AcDbEntity
   8
LAYER0
   6
CONTINUOUS
  62
      9
100
AcDbVertex
100
AcDb2dVertex
  10
1.94151
  20
-4.63732
  30
0.0
   0
SEQEND
   5
2A0
100
AcDbEntity
   8
LAYER0
   6
CONTINUOUS
   0
POLYLINE
   5
2A1
100
AcDbEntity
   8
LAYER0
   6
CONTINUOUS
  62
      9
100
AcDb2dPolyline
  66
      1
  10
0.0
  20
0.0
  30
0.0
  70
      1
  75
      5
   0
VERTEX
   5
2A2
100
AcDbEntity
   8
LAYER0
   6
CONTINUOUS
  62
      9
100
AcDbVertex
100
AcDb2dVertex
  10
1.87901
  20
-4.74557
  30
0.0
   0
VERTEX
   5
2A3
100
AcDbEntity
   8
LAYER0
   6
CONTINUOUS
  62
      9
100
AcDbVertex
100
AcDb2dVertex
  10
1.81651
  20
-4.63732
  30
0.0
   0
VERTEX
   5
2A4
100
AcDbEntity
   8
LAYER0
   6
CONTINUOUS
  62
      9
100
AcDbVertex
100
AcDb2dVertex
  10
1.75401
  20
-3.85383
  30
0.0
   0
VERTEX
   5
2A5
100
AcDbEntity
   8
LAYER0
   6
CONTINUOUS
  62
      9
100
AcDbVertex
100
AcDb2dVertex
  10
1.81651
  20
-3.74558
  30
0.0
   0
SEQEND
   5
2A6
100
AcDbEntity
   8
LAYER0
   6
CONTINUOUS
   0
POLYLINE
   5
2A7
100
AcDbEntity
   8
LAYER0
   6
CONTINUOUS
  62
      9
100
AcDb2dPolyline
  66
      1
  10
0.0
  20
0.0
  30
0.0
  70
      1
  75
      5
   0
VERTEX
   5
2A8
100
AcDbEntity
   8
LAYER0
   6
CONTINUOUS
  62
      9
100
AcDbVertex
100
AcDb2dVertex
  10
1.75401
  20
-3.85383
  30
0.0
   0
VERTEX
   5
2A9
100
AcDbEntity
   8
LAYER0
   6
CONTINUOUS
  62
      9
100
AcDbVertex
100
AcDb2dVertex
  10
1.69151
  20
-3.74558
  30
0.0
   0
VERTEX
   5
2AA
100
AcDbEntity
   8
LAYER0
   6
CONTINUOUS
  62
      9
100
AcDbVertex
100
AcDb2dVertex
  10
1.75401
  20
-4.74558
  30
0.0
   0
VERTEX
   5
2AB
100
AcDbEntity
   8
LAYER0
   6
CONTINUOUS
  62
      9
100
AcDbVertex
100
AcDb2dVertex
  10
1.81651
  20
-4.63733
  30
0.0
   0
SEQEND
   5
2AC
100
AcDbEntity
   8
LAYER0
   6
CONTINUOUS
   0
POLYLINE
   5
2AD
100
AcDbEntity
   8
LAYER0
   6
CONTINUOUS
  62
      9
100
AcDb2dPolyline
  66
      1
  10
0.0
  20
0.0
  30
0.0
  70
      1
  75
      5
   0
VERTEX
   5
2AE
100
AcDbEntity
   8
LAYER0
   6
CONTINUOUS
  62
      9
100
AcDbVertex
100
AcDb2dVertex
  10
1.75401
  20
-4.74558
  30
0.0
   0
VERTEX
   5
2AF
100
AcDbEntity
   8
LAYER0
   6
CONTINUOUS
  62
      9
100
AcDbVertex
100
AcDb2dVertex
  10
1.69151
  20
-4.63733
  30
0.0
   0
VERTEX
   5
2B0
100
AcDbEntity
   8
LAYER0
   6
CONTINUOUS
  62
      9
100
AcDbVertex
100
AcDb2dVertex
  10
1.62901
  20
-3.85384
  30
0.0
   0
VERTEX
   5
2B1
100
AcDbEntity
   8
LAYER0
   6
CONTINUOUS
  62
      9
100
AcDbVertex
100
AcDb2dVertex
  10
1.69151
  20
-3.74559
  30
0.0
   0
SEQEND
   5
2B2
100
AcDbEntity
   8
LAYER0
   6
CONTINUOUS
   0
POLYLINE
   5
2B3
100
AcDbEntity
   8
LAYER0
   6
CONTINUOUS
  62
      9
100
AcDb2dPolyline
  66
      1
  10
0.0
  20
0.0
  30
0.0
  70
      1
  75
      5
   0
VERTEX
   5
2B4
100
AcDbEntity
   8
LAYER0
   6
CONTINUOUS
  62
      9
100
AcDbVertex
100
AcDb2dVertex
  10
1.62901
  20
-3.85384
  30
0.0
   0
VERTEX
   5
2B5
100
AcDbEntity
   8
LAYER0
   6
CONTINUOUS
  62
      9
100
AcDbVertex
100
AcDb2dVertex
  10
1.56651
  20
-3.74559
  30
0.0
   0
VERTEX
   5
2B6
100
AcDbEntity
   8
LAYER0
   6
CONTINUOUS
  62
      9
100
AcDbVertex
100
AcDb2dVertex
  10
1.62901
  20
-4.74559
  30
0.0
   0
VERTEX
   5
2B7
100
AcDbEntity
   8
LAYER0
   6
CONTINUOUS
  62
      9
100
AcDbVertex
100
AcDb2dVertex
  10
1.69151
  20
-4.63734
  30
0.0
   0
SEQEND
   5
2B8
100
AcDbEntity
   8
LAYER0
   6
CONTINUOUS
   0
POLYLINE
   5
2B9
100
AcDbEntity
   8
LAYER0
   6
CONTINUOUS
  62
      9
100
AcDb2dPolyline
  66
      1
  10
0.0
  20
0.0
  30
0.0
  70
      1
  75
      5
   0
VERTEX
   5
2BA
100
AcDbEntity
   8
LAYER0
   6
CONTINUOUS
  62
      9
100
AcDbVertex
100
AcDb2dVertex
  10
1.62901
  20
-4.74559
  30
0.0
   0
VERTEX
   5
2BB
100
AcDbEntity
   8
LAYER0
   6
CONTINUOUS
  62
      9
100
AcDbVertex
100
AcDb2dVertex
  10
1.56651
  20
-4.63734
  30
0.0
   0
VERTEX
   5
2BC
100
AcDbEntity
   8
LAYER0
   6
CONTINUOUS
  62
      9
100
AcDbVertex
100
AcDb2dVertex
  10
1.50401
  20
-3.85385
  30
0.0
   0
VERTEX
   5
2BD
100
AcDbEntity
   8
LAYER0
   6
CONTINUOUS
  62
      9
100
AcDbVertex
100
AcDb2dVertex
  10
1.56651
  20
-3.7456
  30
0.0
   0
SEQEND
   5
2BE
100
AcDbEntity
   8
LAYER0
   6
CONTINUOUS
   0
POLYLINE
   5
2BF
100
AcDbEntity
   8
LAYER0
   6
CONTINUOUS
  62
      9
100
AcDb2dPolyline
  66
      1
  10
0.0
  20
0.0
  30
0.0
  70
      1
  75
      5
   0
VERTEX
   5
2C0
100
AcDbEntity
   8
LAYER0
   6
CONTINUOUS
  62
      9
100
AcDbVertex
100
AcDb2dVertex
  10
1.50401
  20
-3.85385
  30
0.0
   0
VERTEX
   5
2C1
100
AcDbEntity
   8
LAYER0
   6
CONTINUOUS
  62
      9
100
AcDbVertex
100
AcDb2dVertex
  10
1.44151
  20
-3.7456
  30
0.0
   0
VERTEX
   5
2C2
100
AcDbEntity
   8
LAYER0
   6
CONTINUOUS
  62
      9
100
AcDbVertex
100
AcDb2dVertex
  10
1.50401
  20
-4.7456
  30
0.0
   0
VERTEX
   5
2C3
100
AcDbEntity
   8
LAYER0
   6
CONTINUOUS
  62
      9
100
AcDbVertex
100
AcDb2dVertex
  10
1.56651
  20
-4.63735
  30
0.0
   0
SEQEND
   5
2C4
100
AcDbEntity
   8
LAYER0
   6
CONTINUOUS
   0
POLYLINE
   5
2C5
100
AcDbEntity
   8
LAYER0
   6
CONTINUOUS
  62
      9
100
AcDb2dPolyline
  66
      1
  10
0.0
  20
0.0
  30
0.0
  70
      1
  75
      5
   0
VERTEX
   5
2C6
100
AcDbEntity
   8
LAYER0
   6
CONTINUOUS
  62
      9
100
AcDbVertex
100
AcDb2dVertex
  10
1.50401
  20
-4.7456
  30
0.0
   0
VERTEX
   5
2C7
100
AcDbEntity
   8
LAYER0
   6
CONTINUOUS
  62
      9
100
AcDbVertex
100
AcDb2dVertex
  10
1.44151
  20
-4.63735
  30
0.0
   0
VERTEX
   5
2C8
100
AcDbEntity
   8
LAYER0
   6
CONTINUOUS
  62
      9
100
AcDbVertex
100
AcDb2dVertex
  10
1.37901
  20
-3.85386
  30
0.0
   0
VERTEX
   5
2C9
100
AcDbEntity
   8
LAYER0
   6
CONTINUOUS
  62
      9
100
AcDbVertex
100
AcDb2dVertex
  10
1.44151
  20
-3.74561
  30
0.0
   0
SEQEND
   5
2CA
100
AcDbEntity
   8
LAYER0
   6
CONTINUOUS
   0
POLYLINE
   5
2CB
100
AcDbEntity
   8
LAYER0
   6
CONTINUOUS
  62
      9
100
AcDb2dPolyline
  66
      1
  10
0.0
  20
0.0
  30
0.0
  70
      1
  75
      5
   0
VERTEX
   5
2CC
100
AcDbEntity
   8
LAYER0
   6
CONTINUOUS
  62
      9
100
AcDbVertex
100
AcDb2dVertex
  10
1.37901
  20
-3.85386
  30
0.0
   0
VERTEX
   5
2CD
100
AcDbEntity
   8
LAYER0
   6
CONTINUOUS
  62
      9
100
AcDbVertex
100
AcDb2dVertex
  10
1.31651
  20
-3.74561
  30
0.0
   0
VERTEX
   5
2CE
100
AcDbEntity
   8
LAYER0
   6
CONTINUOUS
  62
      9
100
AcDbVertex
100
AcDb2dVertex
  10
1.37901
  20
-4.74561
  30
0.0
   0
VERTEX
   5
2CF
100
AcDbEntity
   8
LAYER0
   6
CONTINUOUS
  62
      9
100
AcDbVertex
100
AcDb2dVertex
  10
1.44151
  20
-4.63736
  30
0.0
   0
SEQEND
   5
2D0
100
AcDbEntity
   8
LAYER0
   6
CONTINUOUS
   0
POLYLINE
   5
2D1
100
AcDbEntity
   8
LAYER0
   6
CONTINUOUS
  62
      9
100
AcDb2dPolyline
  66
      1
  10
0.0
  20
0.0
  30
0.0
  70
      1
  75
      5
   0
VERTEX
   5
2D2
100
AcDbEntity
   8
LAYER0
   6
CONTINUOUS
  62
      9
100
AcDbVertex
100
AcDb2dVertex
  10
1.37901
  20
-4.74561
  30
0.0
   0
VERTEX
   5
2D3
100
AcDbEntity
   8
LAYER0
   6
CONTINUOUS
  62
      9
100
AcDbVertex
100
AcDb2dVertex
  10
1.31651
  20
-4.63736
  30
0.0
   0
VERTEX
   5
2D4
100
AcDbEntity
   8
LAYER0
   6
CONTINUOUS
  62
      9
100
AcDbVertex
100
AcDb2dVertex
  10
1.25401
  20
-3.85387
  30
0.0
   0
VERTEX
   5
2D5
100
AcDbEntity
   8
LAYER0
   6
CONTINUOUS
  62
      9
100
AcDbVertex
100
AcDb2dVertex
  10
1.31651
  20
-3.74562
  30
0.0
   0
SEQEND
   5
2D6
100
AcDbEntity
   8
LAYER0
   6
CONTINUOUS
   0
POLYLINE
   5
2D7
100
AcDbEntity
   8
LAYER0
   6
CONTINUOUS
  62
      9
100
AcDb2dPolyline
  66
      1
  10
0.0
  20
0.0
  30
0.0
  70
      1
  75
      5
   0
VERTEX
   5
2D8
100
AcDbEntity
   8
LAYER0
   6
CONTINUOUS
  62
      9
100
AcDbVertex
100
AcDb2dVertex
  10
1.25401
  20
-3.85387
  30
0.0
   0
VERTEX
   5
2D9
100
AcDbEntity
   8
LAYER0
   6
CONTINUOUS
  62
      9
100
AcDbVertex
100
AcDb2dVertex
  10
1.19151
  20
-3.74562
  30
0.0
   0
VERTEX
   5
2DA
100
AcDbEntity
   8
LAYER0
   6
CONTINUOUS
  62
      9
100
AcDbVertex
100
AcDb2dVertex
  10
1.25401
  20
-4.74562
  30
0.0
   0
VERTEX
   5
2DB
100
AcDbEntity
   8
LAYER0
   6
CONTINUOUS
  62
      9
100
AcDbVertex
100
AcDb2dVertex
  10
1.31651
  20
-4.63737
  30
0.0
   0
SEQEND
   5
2DC
100
AcDbEntity
   8
LAYER0
   6
CONTINUOUS
   0
POLYLINE
   5
2DD
100
AcDbEntity
   8
LAYER0
   6
CONTINUOUS
  62
      9
100
AcDb2dPolyline
  66
      1
  10
0.0
  20
0.0
  30
0.0
  70
      1
  75
      5
   0
VERTEX
   5
2DE
100
AcDbEntity
   8
LAYER0
   6
CONTINUOUS
  62
      9
100
AcDbVertex
100
AcDb2dVertex
  10
1.25401
  20
-4.74562
  30
0.0
   0
VERTEX
   5
2DF
100
AcDbEntity
   8
LAYER0
   6
CONTINUOUS
  62
      9
100
AcDbVertex
100
AcDb2dVertex
  10
1.19151
  20
-4.63737
  30
0.0
   0
VERTEX
   5
2E0
100
AcDbEntity
   8
LAYER0
   6
CONTINUOUS
  62
      9
100
AcDbVertex
100
AcDb2dVertex
  10
1.12901
  20
-3.85388
  30
0.0
   0
VERTEX
   5
2E1
100
AcDbEntity
   8
LAYER0
   6
CONTINUOUS
  62
      9
100
AcDbVertex
100
AcDb2dVertex
  10
1.19151
  20
-3.74563
  30
0.0
   0
SEQEND
   5
2E2
100
AcDbEntity
   8
LAYER0
   6
CONTINUOUS
   0
POLYLINE
   5
2E3
100
AcDbEntity
   8
LAYER0
   6
CONTINUOUS
  62
      9
100
AcDb2dPolyline
  66
      1
  10
0.0
  20
0.0
  30
0.0
  70
      1
  75
      5
   0
VERTEX
   5
2E4
100
AcDbEntity
   8
LAYER0
   6
CONTINUOUS
  62
      9
100
AcDbVertex
100
AcDb2dVertex
  10
1.12901
  20
-3.85388
  30
0.0
   0
VERTEX
   5
2E5
100
AcDbEntity
   8
LAYER0
   6
CONTINUOUS
  62
      9
100
AcDbVertex
100
AcDb2dVertex
  10
1.06651
  20
-3.74563
  30
0.0
   0
VERTEX
   5
2E6
100
AcDbEntity
   8
LAYER0
   6
CONTINUOUS
  62
      9
100
AcDbVertex
100
AcDb2dVertex
  10
1.12901
  20
-4.74563
  30
0.0
   0
VERTEX
   5
2E7
100
AcDbEntity
   8
LAYER0
   6
CONTINUOUS
  62
      9
100
AcDbVertex
100
AcDb2dVertex
  10
1.19151
  20
-4.63738
  30
0.0
   0
SEQEND
   5
2E8
100
AcDbEntity
   8
LAYER0
   6
CONTINUOUS
   0
POLYLINE
   5
2E9
100
AcDbEntity
   8
LAYER0
   6
CONTINUOUS
  62
      9
100
AcDb2dPolyline
  66
      1
  10
0.0
  20
0.0
  30
0.0
  70
      1
  75
      5
   0
VERTEX
   5
2EA
100
AcDbEntity
   8
LAYER0
   6
CONTINUOUS
  62
      9
100
AcDbVertex
100
AcDb2dVertex
  10
1.12901
  20
-4.74563
  30
0.0
   0
VERTEX
   5
2EB
100
AcDbEntity
   8
LAYER0
   6
CONTINUOUS
  62
      9
100
AcDbVertex
100
AcDb2dVertex
  10
1.06651
  20
-4.63738
  30
0.0
   0
VERTEX
   5
2EC
100
AcDbEntity
   8
LAYER0
   6
CONTINUOUS
  62
      9
100
AcDbVertex
100
AcDb2dVertex
  10
1.00401
  20
-3.85389
  30
0.0
   0
VERTEX
   5
2ED
100
AcDbEntity
   8
LAYER0
   6
CONTINUOUS
  62
      9
100
AcDbVertex
100
AcDb2dVertex
  10
1.06651
  20
-3.74564
  30
0.0
   0
SEQEND
   5
2EE
100
AcDbEntity
   8
LAYER0
   6
CONTINUOUS
   0
POLYLINE
   5
2EF
100
AcDbEntity
   8
LAYER0
   6
CONTINUOUS
  62
      9
100
AcDb2dPolyline
  66
      1
  10
0.0
  20
0.0
  30
0.0
  70
      1
  75
      5
   0
VERTEX
   5
2F0
100
AcDbEntity
   8
LAYER0
   6
CONTINUOUS
  62
      9
100
AcDbVertex
100
AcDb2dVertex
  10
1.00401
  20
-3.85389
  30
0.0
   0
VERTEX
   5
2F1
100
AcDbEntity
   8
LAYER0
   6
CONTINUOUS
  62
      9
100
AcDbVertex
100
AcDb2dVertex
  10
0.94151
  20
-3.74564
  30
0.0
   0
VERTEX
   5
2F2
100
AcDbEntity
   8
LAYER0
   6
CONTINUOUS
  62
      9
100
AcDbVertex
100
AcDb2dVertex
  10
1.00401
  20
-4.74564
  30
0.0
   0
VERTEX
   5
2F3
100
AcDbEntity
   8
LAYER0
   6
CONTINUOUS
  62
      9
100
AcDbVertex
100
AcDb2dVertex
  10
1.06651
  20
-4.63739
  30
0.0
   0
SEQEND
   5
2F4
100
AcDbEntity
   8
LAYER0
   6
CONTINUOUS
   0
POLYLINE
   5
2F5
100
AcDbEntity
   8
LAYER0
   6
CONTINUOUS
  62
      9
100
AcDb2dPolyline
  66
      1
  10
0.0
  20
0.0
  30
0.0
  70
      1
  75
      5
   0
VERTEX
   5
2F6
100
AcDbEntity
   8
LAYER0
   6
CONTINUOUS
  62
      9
100
AcDbVertex
100
AcDb2dVertex
  10
1.00401
  20
-4.74564
  30
0.0
   0
VERTEX
   5
2F7
100
AcDbEntity
   8
LAYER0
   6
CONTINUOUS
  62
      9
100
AcDbVertex
100
AcDb2dVertex
  10
0.94151
  20
-4.63739
  30
0.0
   0
VERTEX
   5
2F8
100
AcDbEntity
   8
LAYER0
   6
CONTINUOUS
  62
      9
100
AcDbVertex
100
AcDb2dVertex
  10
0.87901
  20
-3.8539
  30
0.0
   0
VERTEX
   5
2F9
100
AcDbEntity
   8
LAYER0
   6
CONTINUOUS
  62
      9
100
AcDbVertex
100
AcDb2dVertex
  10
0.94151
  20
-3.74565
  30
0.0
   0
SEQEND
   5
2FA
100
AcDbEntity
   8
LAYER0
   6
CONTINUOUS
   0
POLYLINE
   5
2FB
100
AcDbEntity
   8
LAYER0
   6
CONTINUOUS
  62
      9
100
AcDb2dPolyline
  66
      1
  10
0.0
  20
0.0
  30
0.0
  70
      1
  75
      5
   0
VERTEX
   5
2FC
100
AcDbEntity
   8
LAYER0
   6
CONTINUOUS
  62
      9
100
AcDbVertex
100
AcDb2dVertex
  10
0.87901
  20
-3.8539
  30
0.0
   0
VERTEX
   5
2FD
100
AcDbEntity
   8
LAYER0
   6
CONTINUOUS
  62
      9
100
AcDbVertex
100
AcDb2dVertex
  10
0.81651
  20
-3.74565
  30
0.0
   0
VERTEX
   5
2FE
100
AcDbEntity
   8
LAYER0
   6
CONTINUOUS
  62
      9
100
AcDbVertex
100
AcDb2dVertex
  10
0.87901
  20
-4.74565
  30
0.0
   0
VERTEX
   5
2FF
100
AcDbEntity
   8
LAYER0
   6
CONTINUOUS
  62
      9
100
AcDbVertex
100
AcDb2dVertex
  10
0.94151
  20
-4.6374
  30
0.0
   0
SEQEND
   5
300
100
AcDbEntity
   8
LAYER0
   6
CONTINUOUS
   0
POLYLINE
   5
301
100
AcDbEntity
   8
LAYER0
   6
CONTINUOUS
  62
      9
100
AcDb2dPolyline
  66
      1
  10
0.0
  20
0.0
  30
0.0
  70
      1
  75
      5
   0
VERTEX
   5
302
100
AcDbEntity
   8
LAYER0
   6
CONTINUOUS
  62
      9
100
AcDbVertex
100
AcDb2dVertex
  10
0.87901
  20
-4.74565
  30
0.0
   0
VERTEX
   5
303
100
AcDbEntity
   8
LAYER0
   6
CONTINUOUS
  62
      9
100
AcDbVertex
100
AcDb2dVertex
  10
0.81651
  20
-4.6374
  30
0.0
   0
VERTEX
   5
304
100
AcDbEntity
   8
LAYER0
   6
CONTINUOUS
  62
      9
100
AcDbVertex
100
AcDb2dVertex
  10
0.75401
  20
-3.85391
  30
0.0
   0
VERTEX
   5
305
100
AcDbEntity
   8
LAYER0
   6
CONTINUOUS
  62
      9
100
AcDbVertex
100
AcDb2dVertex
  10
0.81651
  20
-3.74566
  30
0.0
   0
SEQEND
   5
306
100
AcDbEntity
   8
LAYER0
   6
CONTINUOUS
   0
POLYLINE
   5
307
100
AcDbEntity
   8
LAYER0
   6
CONTINUOUS
  62
      9
100
AcDb2dPolyline
  66
      1
  10
0.0
  20
0.0
  30
0.0
  70
      1
  75
      5
   0
VERTEX
   5
308
100
AcDbEntity
   8
LAYER0
   6
CONTINUOUS
  62
      9
100
AcDbVertex
100
AcDb2dVertex
  10
0.75401
  20
-3.85391
  30
0.0
   0
VERTEX
   5
309
100
AcDbEntity
   8
LAYER0
   6
CONTINUOUS
  62
      9
100
AcDbVertex
100
AcDb2dVertex
  10
0.69151
  20
-3.74566
  30
0.0
   0
VERTEX
   5
30A
100
AcDbEntity
   8
LAYER0
   6
CONTINUOUS
  62
      9
100
AcDbVertex
100
AcDb2dVertex
  10
0.75401
  20
-4.74566
  30
0.0
   0
VERTEX
   5
30B
100
AcDbEntity
   8
LAYER0
   6
CONTINUOUS
  62
      9
100
AcDbVertex
100
AcDb2dVertex
  10
0.81651
  20
-4.63741
  30
0.0
   0
SEQEND
   5
30C
100
AcDbEntity
   8
LAYER0
   6
CONTINUOUS
   0
POLYLINE
   5
30D
100
AcDbEntity
   8
LAYER0
   6
CONTINUOUS
  62
      9
100
AcDb2dPolyline
  66
      1
  10
0.0
  20
0.0
  30
0.0
  70
      1
  75
      5
   0
VERTEX
   5
30E
100
AcDbEntity
   8
LAYER0
   6
CONTINUOUS
  62
      9
100
AcDbVertex
100
AcDb2dVertex
  10
0.75401
  20
-4.74566
  30
0.0
   0
VERTEX
   5
30F
100
AcDbEntity
   8
LAYER0
   6
CONTINUOUS
  62
      9
100
AcDbVertex
100
AcDb2dVertex
  10
0.69151
  20
-4.63741
  30
0.0
   0
VERTEX
   5
310
100
AcDbEntity
   8
LAYER0
   6
CONTINUOUS
  62
      9
100
AcDbVertex
100
AcDb2dVertex
  10
0.62901
  20
-3.85392
  30
0.0
   0
VERTEX
   5
311
100
AcDbEntity
   8
LAYER0
   6
CONTINUOUS
  62
      9
100
AcDbVertex
100
AcDb2dVertex
  10
0.69151
  20
-3.74567
  30
0.0
   0
SEQEND
   5
312
100
AcDbEntity
   8
LAYER0
   6
CONTINUOUS
   0
POLYLINE
   5
313
100
AcDbEntity
   8
LAYER0
   6
CONTINUOUS
  62
      9
100
AcDb2dPolyline
  66
      1
  10
0.0
  20
0.0
  30
0.0
  70
      1
  75
      5
   0
VERTEX
   5
314
100
AcDbEntity
   8
LAYER0
   6
CONTINUOUS
  62
      9
100
AcDbVertex
100
AcDb2dVertex
  10
0.62901
  20
-3.85392
  30
0.0
   0
VERTEX
   5
315
100
AcDbEntity
   8
LAYER0
   6
CONTINUOUS
  62
      9
100
AcDbVertex
100
AcDb2dVertex
  10
0.56651
  20
-3.74567
  30
0.0
   0
VERTEX
   5
316
100
AcDbEntity
   8
LAYER0
   6
CONTINUOUS
  62
      9
100
AcDbVertex
100
AcDb2dVertex
  10
0.62901
  20
-4.74567
  30
0.0
   0
VERTEX
   5
317
100
AcDbEntity
   8
LAYER0
   6
CONTINUOUS
  62
      9
100
AcDbVertex
100
AcDb2dVertex
  10
0.69151
  20
-4.63742
  30
0.0
   0
SEQEND
   5
318
100
AcDbEntity
   8
LAYER0
   6
CONTINUOUS
   0
POLYLINE
   5
319
100
AcDbEntity
   8
LAYER0
   6
CONTINUOUS
  62
      9
100
AcDb2dPolyline
  66
      1
  10
0.0
  20
0.0
  30
0.0
  70
      1
  75
      5
   0
VERTEX
   5
31A
100
AcDbEntity
   8
LAYER0
   6
CONTINUOUS
  62
      9
100
AcDbVertex
100
AcDb2dVertex
  10
0.62901
  20
-4.74567
  30
0.0
   0
VERTEX
   5
31B
100
AcDbEntity
   8
LAYER0
   6
CONTINUOUS
  62
      9
100
AcDbVertex
100
AcDb2dVertex
  10
0.56651
  20
-4.63742
  30
0.0
   0
VERTEX
   5
31C
100
AcDbEntity
   8
LAYER0
   6
CONTINUOUS
  62
      9
100
AcDbVertex
100
AcDb2dVertex
  10
0.50401
  20
-3.85393
  30
0.0
   0
VERTEX
   5
31D
100
AcDbEntity
   8
LAYER0
   6
CONTINUOUS
  62
      9
100
AcDbVertex
100
AcDb2dVertex
  10
0.56651
  20
-3.74568
  30
0.0
   0
SEQEND
   5
31E
100
AcDbEntity
   8
LAYER0
   6
CONTINUOUS
   0
POLYLINE
   5
31F
100
AcDbEntity
   8
LAYER0
   6
CONTINUOUS
  62
      9
100
AcDb2dPolyline
  66
      1
  10
0.0
  20
0.0
  30
0.0
  70
      1
  75
      5
   0
VERTEX
   5
320
100
AcDbEntity
   8
LAYER0
   6
CONTINUOUS
  62
      9
100
AcDbVertex
100
AcDb2dVertex
  10
0.50401
  20
-3.85393
  30
0.0
   0
VERTEX
   5
321
100
AcDbEntity
   8
LAYER0
   6
CONTINUOUS
  62
      9
100
AcDbVertex
100
AcDb2dVertex
  10
0.44151
  20
-3.74568
  30
0.0
   0
VERTEX
   5
322
100
AcDbEntity
   8
LAYER0
   6
CONTINUOUS
  62
      9
100
AcDbVertex
100
AcDb2dVertex
  10
0.50401
  20
-4.74568
  30
0.0
   0
VERTEX
   5
323
100
AcDbEntity
   8
LAYER0
   6
CONTINUOUS
  62
      9
100
AcDbVertex
100
AcDb2dVertex
  10
0.56651
  20
-4.63743
  30
0.0
   0
SEQEND
   5
324
100
AcDbEntity
   8
LAYER0
   6
CONTINUOUS
   0
POLYLINE
   5
325
100
AcDbEntity
   8
LAYER0
   6
CONTINUOUS
  62
      9
100
AcDb2dPolyline
  66
      1
  10
0.0
  20
0.0
  30
0.0
  70
      1
  75
      5
   0
VERTEX
   5
326
100
AcDbEntity
   8
LAYER0
   6
CONTINUOUS
  62
      9
100
AcDbVertex
100
AcDb2dVertex
  10
0.50401
  20
-4.74568
  30
0.0
   0
VERTEX
   5
327
100
AcDbEntity
   8
LAYER0
   6
CONTINUOUS
  62
      9
100
AcDbVertex
100
AcDb2dVertex
  10
0.44151
  20
-4.63743
  30
0.0
   0
VERTEX
   5
328
100
AcDbEntity
   8
LAYER0
   6
CONTINUOUS
  62
      9
100
AcDbVertex
100
AcDb2dVertex
  10
0.37901
  20
-3.85394
  30
0.0
   0
VERTEX
   5
329
100
AcDbEntity
   8
LAYER0
   6
CONTINUOUS
  62
      9
100
AcDbVertex
100
AcDb2dVertex
  10
0.44151
  20
-3.74569
  30
0.0
   0
SEQEND
   5
32A
100
AcDbEntity
   8
LAYER0
   6
CONTINUOUS
   0
POLYLINE
   5
32B
100
AcDbEntity
   8
LAYER0
   6
CONTINUOUS
  62
      9
100
AcDb2dPolyline
  66
      1
  10
0.0
  20
0.0
  30
0.0
  70
      1
  75
      5
   0
VERTEX
   5
32C
100
AcDbEntity
   8
LAYER0
   6
CONTINUOUS
  62
      9
100
AcDbVertex
100
AcDb2dVertex
  10
0.37901
  20
-3.85394
  30
0.0
   0
VERTEX
   5
32D
100
AcDbEntity
   8
LAYER0
   6
CONTINUOUS
  62
      9
100
AcDbVertex
100
AcDb2dVertex
  10
0.31651
  20
-3.74569
  30
0.0
   0
VERTEX
   5
32E
100
AcDbEntity
   8
LAYER0
   6
CONTINUOUS
  62
      9
100
AcDbVertex
100
AcDb2dVertex
  10
0.37901
  20
-4.74569
  30
0.0
   0
VERTEX
   5
32F
100
AcDbEntity
   8
LAYER0
   6
CONTINUOUS
  62
      9
100
AcDbVertex
100
AcDb2dVertex
  10
0.44151
  20
-4.63744
  30
0.0
   0
SEQEND
   5
330
100
AcDbEntity
   8
LAYER0
   6
CONTINUOUS
   0
POLYLINE
   5
331
100
AcDbEntity
   8
LAYER0
   6
CONTINUOUS
  62
      9
100
AcDb2dPolyline
  66
      1
  10
0.0
  20
0.0
  30
0.0
  70
      1
  75
      5
   0
VERTEX
   5
332
100
AcDbEntity
   8
LAYER0
   6
CONTINUOUS
  62
      9
100
AcDbVertex
100
AcDb2dVertex
  10
0.37901
  20
-4.74569
  30
0.0
   0
VERTEX
   5
333
100
AcDbEntity
   8
LAYER0
   6
CONTINUOUS
  62
      9
100
AcDbVertex
100
AcDb2dVertex
  10
0.31651
  20
-4.63744
  30
0.0
   0
VERTEX
   5
334
100
AcDbEntity
   8
LAYER0
   6
CONTINUOUS
  62
      9
100
AcDbVertex
100
AcDb2dVertex
  10
0.25401
  20
-3.85395
  30
0.0
   0
VERTEX
   5
335
100
AcDbEntity
   8
LAYER0
   6
CONTINUOUS
  62
      9
100
AcDbVertex
100
AcDb2dVertex
  10
0.31651
  20
-3.7457
  30
0.0
   0
SEQEND
   5
336
100
AcDbEntity
   8
LAYER0
   6
CONTINUOUS
   0
POLYLINE
   5
337
100
AcDbEntity
   8
LAYER0
   6
CONTINUOUS
  62
      9
100
AcDb2dPolyline
  66
      1
  10
0.0
  20
0.0
  30
0.0
  70
      1
  75
      5
   0
VERTEX
   5
338
100
AcDbEntity
   8
LAYER0
   6
CONTINUOUS
  62
      9
100
AcDbVertex
100
AcDb2dVertex
  10
0.25401
  20
-3.85395
  30
0.0
   0
VERTEX
   5
339
100
AcDbEntity
   8
LAYER0
   6
CONTINUOUS
  62
      9
100
AcDbVertex
100
AcDb2dVertex
  10
0.19151
  20
-3.7457
  30
0.0
   0
VERTEX
   5
33A
100
AcDbEntity
   8
LAYER0
   6
CONTINUOUS
  62
      9
100
AcDbVertex
100
AcDb2dVertex
  10
0.25401
  20
-4.7457
  30
0.0
   0
VERTEX
   5
33B
100
AcDbEntity
   8
LAYER0
   6
CONTINUOUS
  62
      9
100
AcDbVertex
100
AcDb2dVertex
  10
0.31651
  20
-4.63745
  30
0.0
   0
SEQEND
   5
33C
100
AcDbEntity
   8
LAYER0
   6
CONTINUOUS
   0
POLYLINE
   5
33D
100
AcDbEntity
   8
LAYER0
   6
CONTINUOUS
  62
      9
100
AcDb2dPolyline
  66
      1
  10
0.0
  20
0.0
  30
0.0
  70
      1
  75
      5
   0
VERTEX
   5
33E
100
AcDbEntity
   8
LAYER0
   6
CONTINUOUS
  62
      9
100
AcDbVertex
100
AcDb2dVertex
  10
0.25401
  20
-4.7457
  30
0.0
   0
VERTEX
   5
33F
100
AcDbEntity
   8
LAYER0
   6
CONTINUOUS
  62
      9
100
AcDbVertex
100
AcDb2dVertex
  10
0.19151
  20
-4.63745
  30
0.0
   0
VERTEX
   5
340
100
AcDbEntity
   8
LAYER0
   6
CONTINUOUS
  62
      9
100
AcDbVertex
100
AcDb2dVertex
  10
0.12901
  20
-3.85396
  30
0.0
   0
VERTEX
   5
341
100
AcDbEntity
   8
LAYER0
   6
CONTINUOUS
  62
      9
100
AcDbVertex
100
AcDb2dVertex
  10
0.19151
  20
-3.74571
  30
0.0
   0
SEQEND
   5
342
100
AcDbEntity
   8
LAYER0
   6
CONTINUOUS
   0
POLYLINE
   5
343
100
AcDbEntity
   8
LAYER0
   6
CONTINUOUS
  62
      9
100
AcDb2dPolyline
  66
      1
  10
0.0
  20
0.0
  30
0.0
  70
      1
  75
      5
   0
VERTEX
   5
344
100
AcDbEntity
   8
LAYER0
   6
CONTINUOUS
  62
      9
100
AcDbVertex
100
AcDb2dVertex
  10
0.12901
  20
-3.85396
  30
0.0
   0
VERTEX
   5
345
100
AcDbEntity
   8
LAYER0
   6
CONTINUOUS
  62
      9
100
AcDbVertex
100
AcDb2dVertex
  10
0.06651
  20
-3.74571
  30
0.0
   0
VERTEX
   5
346
100
AcDbEntity
   8
LAYER0
   6
CONTINUOUS
  62
      9
100
AcDbVertex
100
AcDb2dVertex
  10
0.12901
  20
-4.74571
  30
0.0
   0
VERTEX
   5
347
100
AcDbEntity
   8
LAYER0
   6
CONTINUOUS
  62
      9
100
AcDbVertex
100
AcDb2dVertex
  10
0.19151
  20
-4.63746
  30
0.0
   0
SEQEND
   5
348
100
AcDbEntity
   8
LAYER0
   6
CONTINUOUS
   0
POLYLINE
   5
349
100
AcDbEntity
   8
LAYER0
   6
CONTINUOUS
  62
      9
100
AcDb2dPolyline
  66
      1
  10
0.0
  20
0.0
  30
0.0
  70
      1
  75
      5
   0
VERTEX
   5
34A
100
AcDbEntity
   8
LAYER0
   6
CONTINUOUS
  62
      9
100
AcDbVertex
100
AcDb2dVertex
  10
0.12901
  20
-4.74571
  30
0.0
   0
VERTEX
   5
34B
100
AcDbEntity
   8
LAYER0
   6
CONTINUOUS
  62
      9
100
AcDbVertex
100
AcDb2dVertex
  10
0.06651
  20
-4.63746
  30
0.0
   0
VERTEX
   5
34C
100
AcDbEntity
   8
LAYER0
   6
CONTINUOUS
  62
      9
100
AcDbVertex
100
AcDb2dVertex
  10
0.00401
  20
-3.85397
  30
0.0
   0
VERTEX
   5
34D
100
AcDbEntity
   8
LAYER0
   6
CONTINUOUS
  62
      9
100
AcDbVertex
100
AcDb2dVertex
  10
0.06651
  20
-3.74572
  30
0.0
   0
SEQEND
   5
34E
100
AcDbEntity
   8
LAYER0
   6
CONTINUOUS
   0
POLYLINE
   5
34F
100
AcDbEntity
   8
LAYER0
   6
CONTINUOUS
  62
      9
100
AcDb2dPolyline
  66
      1
  10
0.0
  20
0.0
  30
0.0
  70
      1
  75
      5
   0
VERTEX
   5
350
100
AcDbEntity
   8
LAYER0
   6
CONTINUOUS
  62
      9
100
AcDbVertex
100
AcDb2dVertex
  10
0.00401
  20
-3.85397
  30
0.0
   0
VERTEX
   5
351
100
AcDbEntity
   8
LAYER0
   6
CONTINUOUS
  62
      9
100
AcDbVertex
100
AcDb2dVertex
  10
-0.05849
  20
-3.74572
  30
0.0
   0
VERTEX
   5
352
100
AcDbEntity
   8
LAYER0
   6
CONTINUOUS
  62
      9
100
AcDbVertex
100
AcDb2dVertex
  10
0.00401
  20
-4.74572
  30
0.0
   0
VERTEX
   5
353
100
AcDbEntity
   8
LAYER0
   6
CONTINUOUS
  62
      9
100
AcDbVertex
100
AcDb2dVertex
  10
0.06651
  20
-4.63747
  30
0.0
   0
SEQEND
   5
354
100
AcDbEntity
   8
LAYER0
   6
CONTINUOUS
   0
POLYLINE
   5
355
100
AcDbEntity
   8
LAYER0
   6
CONTINUOUS
  62
      9
100
AcDb2dPolyline
  66
      1
  10
0.0
  20
0.0
  30
0.0
  70
      1
  75
      5
   0
VERTEX
   5
356
100
AcDbEntity
   8
LAYER0
   6
CONTINUOUS
  62
      9
100
AcDbVertex
100
AcDb2dVertex
  10
0.00401
  20
-4.74572
  30
0.0
   0
VERTEX
   5
357
100
AcDbEntity
   8
LAYER0
   6
CONTINUOUS
  62
      9
100
AcDbVertex
100
AcDb2dVertex
  10
-0.05849
  20
-4.63747
  30
0.0
   0
VERTEX
   5
358
100
AcDbEntity
   8
LAYER0
   6
CONTINUOUS
  62
      9
100
AcDbVertex
100
AcDb2dVertex
  10
-0.12099
  20
-3.85398
  30
0.0
   0
VERTEX
   5
359
100
AcDbEntity
   8
LAYER0
   6
CONTINUOUS
  62
      9
100
AcDbVertex
100
AcDb2dVertex
  10
-0.05849
  20
-3.74573
  30
0.0
   0
SEQEND
   5
35A
100
AcDbEntity
   8
LAYER0
   6
CONTINUOUS
   0
POLYLINE
   5
35B
100
AcDbEntity
   8
LAYER0
   6
CONTINUOUS
  62
      9
100
AcDb2dPolyline
  66
      1
  10
0.0
  20
0.0
  30
0.0
  70
      1
  75
      5
   0
VERTEX
   5
35C
100
AcDbEntity
   8
LAYER0
   6
CONTINUOUS
  62
      9
100
AcDbVertex
100
AcDb2dVertex
  10
-0.12099
  20
-3.85398
  30
0.0
   0
VERTEX
   5
35D
100
AcDbEntity
   8
LAYER0
   6
CONTINUOUS
  62
      9
100
AcDbVertex
100
AcDb2dVertex
  10
-0.18349
  20
-3.74573
  30
0.0
   0
VERTEX
   5
35E
100
AcDbEntity
   8
LAYER0
   6
CONTINUOUS
  62
      9
100
AcDbVertex
100
AcDb2dVertex
  10
-0.12099
  20
-4.74573
  30
0.0
   0
VERTEX
   5
35F
100
AcDbEntity
   8
LAYER0
   6
CONTINUOUS
  62
      9
100
AcDbVertex
100
AcDb2dVertex
  10
-0.05849
  20
-4.63748
  30
0.0
   0
SEQEND
   5
360
100
AcDbEntity
   8
LAYER0
   6
CONTINUOUS
   0
POLYLINE
   5
361
100
AcDbEntity
   8
LAYER0
   6
CONTINUOUS
  62
      9
100
AcDb2dPolyline
  66
      1
  10
0.0
  20
0.0
  30
0.0
  70
      1
  75
      5
   0
VERTEX
   5
362
100
AcDbEntity
   8
LAYER0
   6
CONTINUOUS
  62
      9
100
AcDbVertex
100
AcDb2dVertex
  10
-0.12099
  20
-4.74573
  30
0.0
   0
VERTEX
   5
363
100
AcDbEntity
   8
LAYER0
   6
CONTINUOUS
  62
      9
100
AcDbVertex
100
AcDb2dVertex
  10
-0.18349
  20
-4.63748
  30
0.0
   0
VERTEX
   5
364
100
AcDbEntity
   8
LAYER0
   6
CONTINUOUS
  62
      9
100
AcDbVertex
100
AcDb2dVertex
  10
-0.24599
  20
-3.85399
  30
0.0
   0
VERTEX
   5
365
100
AcDbEntity
   8
LAYER0
   6
CONTINUOUS
  62
      9
100
AcDbVertex
100
AcDb2dVertex
  10
-0.18349
  20
-3.74574
  30
0.0
   0
SEQEND
   5
366
100
AcDbEntity
   8
LAYER0
   6
CONTINUOUS
   0
POLYLINE
   5
367
100
AcDbEntity
   8
LAYER0
   6
CONTINUOUS
  62
      9
100
AcDb2dPolyline
  66
      1
  10
0.0
  20
0.0
  30
0.0
  70
      1
  75
      5
   0
VERTEX
   5
368
100
AcDbEntity
   8
LAYER0
   6
CONTINUOUS
  62
      9
100
AcDbVertex
100
AcDb2dVertex
  10
-0.24599
  20
-3.85399
  30
0.0
   0
VERTEX
   5
369
100
AcDbEntity
   8
LAYER0
   6
CONTINUOUS
  62
      9
100
AcDbVertex
100
AcDb2dVertex
  10
-0.30849
  20
-3.74574
  30
0.0
   0
VERTEX
   5
36A
100
AcDbEntity
   8
LAYER0
   6
CONTINUOUS
  62
      9
100
AcDbVertex
100
AcDb2dVertex
  10
-0.24599
  20
-4.74574
  30
0.0
   0
VERTEX
   5
36B
100
AcDbEntity
   8
LAYER0
   6
CONTINUOUS
  62
      9
100
AcDbVertex
100
AcDb2dVertex
  10
-0.18349
  20
-4.63749
  30
0.0
   0
SEQEND
   5
36C
100
AcDbEntity
   8
LAYER0
   6
CONTINUOUS
   0
POLYLINE
   5
36D
100
AcDbEntity
   8
LAYER0
   6
CONTINUOUS
  62
      9
100
AcDb2dPolyline
  66
      1
  10
0.0
  20
0.0
  30
0.0
  70
      1
  75
      5
   0
VERTEX
   5
36E
100
AcDbEntity
   8
LAYER0
   6
CONTINUOUS
  62
      9
100
AcDbVertex
100
AcDb2dVertex
  10
-0.24599
  20
-4.74574
  30
0.0
   0
VERTEX
   5
36F
100
AcDbEntity
   8
LAYER0
   6
CONTINUOUS
  62
      9
100
AcDbVertex
100
AcDb2dVertex
  10
-0.30849
  20
-4.63749
  30
0.0
   0
VERTEX
   5
370
100
AcDbEntity
   8
LAYER0
   6
CONTINUOUS
  62
      9
100
AcDbVertex
100
AcDb2dVertex
  10
-0.37099
  20
-3.854
  30
0.0
   0
VERTEX
   5
371
100
AcDbEntity
   8
LAYER0
   6
CONTINUOUS
  62
      9
100
AcDbVertex
100
AcDb2dVertex
  10
-0.30849
  20
-3.74575
  30
0.0
   0
SEQEND
   5
372
100
AcDbEntity
   8
LAYER0
   6
CONTINUOUS
   0
POLYLINE
   5
373
100
AcDbEntity
   8
LAYER0
   6
CONTINUOUS
  62
      9
100
AcDb2dPolyline
  66
      1
  10
0.0
  20
0.0
  30
0.0
  70
      1
  75
      5
   0
VERTEX
   5
374
100
AcDbEntity
   8
LAYER0
   6
CONTINUOUS
  62
      9
100
AcDbVertex
100
AcDb2dVertex
  10
-0.37099
  20
-3.854
  30
0.0
   0
VERTEX
   5
375
100
AcDbEntity
   8
LAYER0
   6
CONTINUOUS
  62
      9
100
AcDbVertex
100
AcDb2dVertex
  10
-0.43349
  20
-3.74575
  30
0.0
   0
VERTEX
   5
376
100
AcDbEntity
   8
LAYER0
   6
CONTINUOUS
  62
      9
100
AcDbVertex
100
AcDb2dVertex
  10
-0.37099
  20
-4.74575
  30
0.0
   0
VERTEX
   5
377
100
AcDbEntity
   8
LAYER0
   6
CONTINUOUS
  62
      9
100
AcDbVertex
100
AcDb2dVertex
  10
-0.30849
  20
-4.6375
  30
0.0
   0
SEQEND
   5
378
100
AcDbEntity
   8
LAYER0
   6
CONTINUOUS
   0
POLYLINE
   5
379
100
AcDbEntity
   8
LAYER0
   6
CONTINUOUS
  62
      9
100
AcDb2dPolyline
  66
      1
  10
0.0
  20
0.0
  30
0.0
  70
      1
  75
      5
   0
VERTEX
   5
37A
100
AcDbEntity
   8
LAYER0
   6
CONTINUOUS
  62
      9
100
AcDbVertex
100
AcDb2dVertex
  10
-0.37099
  20
-4.74575
  30
0.0
   0
VERTEX
   5
37B
100
AcDbEntity
   8
LAYER0
   6
CONTINUOUS
  62
      9
100
AcDbVertex
100
AcDb2dVertex
  10
-0.43349
  20
-4.6375
  30
0.0
   0
VERTEX
   5
37C
100
AcDbEntity
   8
LAYER0
   6
CONTINUOUS
  62
      9
100
AcDbVertex
100
AcDb2dVertex
  10
-0.49599
  20
-3.85401
  30
0.0
   0
VERTEX
   5
37D
100
AcDbEntity
   8
LAYER0
   6
CONTINUOUS
  62
      9
100
AcDbVertex
100
AcDb2dVertex
  10
-0.43349
  20
-3.74576
  30
0.0
   0
SEQEND
   5
37E
100
AcDbEntity
   8
LAYER0
   6
CONTINUOUS
   0
POLYLINE
   5
37F
100
AcDbEntity
   8
LAYER0
   6
CONTINUOUS
  62
      9
100
AcDb2dPolyline
  66
      1
  10
0.0
  20
0.0
  30
0.0
  70
      1
  75
      5
   0
VERTEX
   5
380
100
AcDbEntity
   8
LAYER0
   6
CONTINUOUS
  62
      9
100
AcDbVertex
100
AcDb2dVertex
  10
-0.49599
  20
-3.85401
  30
0.0
   0
VERTEX
   5
381
100
AcDbEntity
   8
LAYER0
   6
CONTINUOUS
  62
      9
100
AcDbVertex
100
AcDb2dVertex
  10
-0.55849
  20
-3.74576
  30
0.0
   0
VERTEX
   5
382
100
AcDbEntity
   8
LAYER0
   6
CONTINUOUS
  62
      9
100
AcDbVertex
100
AcDb2dVertex
  10
-0.49599
  20
-4.74576
  30
0.0
   0
VERTEX
   5
383
100
AcDbEntity
   8
LAYER0
   6
CONTINUOUS
  62
      9
100
AcDbVertex
100
AcDb2dVertex
  10
-0.43349
  20
-4.63751
  30
0.0
   0
SEQEND
   5
384
100
AcDbEntity
   8
LAYER0
   6
CONTINUOUS
   0
POLYLINE
   5
385
100
AcDbEntity
   8
LAYER0
   6
CONTINUOUS
  62
      9
100
AcDb2dPolyline
  66
      1
  10
0.0
  20
0.0
  30
0.0
  70
      1
  75
      5
   0
VERTEX
   5
386
100
AcDbEntity
   8
LAYER0
   6
CONTINUOUS
  62
      9
100
AcDbVertex
100
AcDb2dVertex
  10
-0.49599
  20
-4.74576
  30
0.0
   0
VERTEX
   5
387
100
AcDbEntity
   8
LAYER0
   6
CONTINUOUS
  62
      9
100
AcDbVertex
100
AcDb2dVertex
  10
-0.55849
  20
-4.63751
  30
0.0
   0
VERTEX
   5
388
100
AcDbEntity
   8
LAYER0
   6
CONTINUOUS
  62
      9
100
AcDbVertex
100
AcDb2dVertex
  10
-0.62099
  20
-3.85402
  30
0.0
   0
VERTEX
   5
389
100
AcDbEntity
   8
LAYER0
   6
CONTINUOUS
  62
      9
100
AcDbVertex
100
AcDb2dVertex
  10
-0.55849
  20
-3.74577
  30
0.0
   0
SEQEND
   5
38A
100
AcDbEntity
   8
LAYER0
   6
CONTINUOUS
   0
POLYLINE
   5
38B
100
AcDbEntity
   8
LAYER0
   6
CONTINUOUS
  62
      9
100
AcDb2dPolyline
  66
      1
  10
0.0
  20
0.0
  30
0.0
  70
      1
  75
      5
   0
VERTEX
   5
38C
100
AcDbEntity
   8
LAYER0
   6
CONTINUOUS
  62
      9
100
AcDbVertex
100
AcDb2dVertex
  10
-0.62099
  20
-3.85402
  30
0.0
   0
VERTEX
   5
38D
100
AcDbEntity
   8
LAYER0
   6
CONTINUOUS
  62
      9
100
AcDbVertex
100
AcDb2dVertex
  10
-0.68349
  20
-3.74577
  30
0.0
   0
VERTEX
   5
38E
100
AcDbEntity
   8
LAYER0
   6
CONTINUOUS
  62
      9
100
AcDbVertex
100
AcDb2dVertex
  10
-0.62099
  20
-4.74577
  30
0.0
   0
VERTEX
   5
38F
100
AcDbEntity
   8
LAYER0
   6
CONTINUOUS
  62
      9
100
AcDbVertex
100
AcDb2dVertex
  10
-0.55849
  20
-4.63752
  30
0.0
   0
SEQEND
   5
390
100
AcDbEntity
   8
LAYER0
   6
CONTINUOUS
   0
POLYLINE
   5
391
100
AcDbEntity
   8
LAYER0
   6
CONTINUOUS
  62
      9
100
AcDb2dPolyline
  66
      1
  10
0.0
  20
0.0
  30
0.0
  70
      1
  75
      5
   0
VERTEX
   5
392
100
AcDbEntity
   8
LAYER0
   6
CONTINUOUS
  62
      9
100
AcDbVertex
100
AcDb2dVertex
  10
-0.62099
  20
-4.74577
  30
0.0
   0
VERTEX
   5
393
100
AcDbEntity
   8
LAYER0
   6
CONTINUOUS
  62
      9
100
AcDbVertex
100
AcDb2dVertex
  10
-0.68349
  20
-4.63752
  30
0.0
   0
VERTEX
   5
394
100
AcDbEntity
   8
LAYER0
   6
CONTINUOUS
  62
      9
100
AcDbVertex
100
AcDb2dVertex
  10
-0.74599
  20
-3.85403
  30
0.0
   0
VERTEX
   5
395
100
AcDbEntity
   8
LAYER0
   6
CONTINUOUS
  62
      9
100
AcDbVertex
100
AcDb2dVertex
  10
-0.68349
  20
-3.74578
  30
0.0
   0
SEQEND
   5
396
100
AcDbEntity
   8
LAYER0
   6
CONTINUOUS
   0
POLYLINE
   5
397
100
AcDbEntity
   8
LAYER0
   6
CONTINUOUS
  62
      9
100
AcDb2dPolyline
  66
      1
  10
0.0
  20
0.0
  30
0.0
  70
      1
  75
      5
   0
VERTEX
   5
398
100
AcDbEntity
   8
LAYER0
   6
CONTINUOUS
  62
      9
100
AcDbVertex
100
AcDb2dVertex
  10
-0.74599
  20
-3.85403
  30
0.0
   0
VERTEX
   5
399
100
AcDbEntity
   8
LAYER0
   6
CONTINUOUS
  62
      9
100
AcDbVertex
100
AcDb2dVertex
  10
-0.80849
  20
-3.74578
  30
0.0
   0
VERTEX
   5
39A
100
AcDbEntity
   8
LAYER0
   6
CONTINUOUS
  62
      9
100
AcDbVertex
100
AcDb2dVertex
  10
-0.74599
  20
-4.74578
  30
0.0
   0
VERTEX
   5
39B
100
AcDbEntity
   8
LAYER0
   6
CONTINUOUS
  62
      9
100
AcDbVertex
100
AcDb2dVertex
  10
-0.68349
  20
-4.63753
  30
0.0
   0
SEQEND
   5
39C
100
AcDbEntity
   8
LAYER0
   6
CONTINUOUS
   0
POLYLINE
   5
39D
100
AcDbEntity
   8
LAYER0
   6
CONTINUOUS
  62
      9
100
AcDb2dPolyline
  66
      1
  10
0.0
  20
0.0
  30
0.0
  70
      1
  75
      5
   0
VERTEX
   5
39E
100
AcDbEntity
   8
LAYER0
   6
CONTINUOUS
  62
      9
100
AcDbVertex
100
AcDb2dVertex
  10
-0.74599
  20
-4.74578
  30
0.0
   0
VERTEX
   5
39F
100
AcDbEntity
   8
LAYER0
   6
CONTINUOUS
  62
      9
100
AcDbVertex
100
AcDb2dVertex
  10
-0.80849
  20
-4.63753
  30
0.0
   0
VERTEX
   5
3A0
100
AcDbEntity
   8
LAYER0
   6
CONTINUOUS
  62
      9
100
AcDbVertex
100
AcDb2dVertex
  10
-0.87099
  20
-3.85404
  30
0.0
   0
VERTEX
   5
3A1
100
AcDbEntity
   8
LAYER0
   6
CONTINUOUS
  62
      9
100
AcDbVertex
100
AcDb2dVertex
  10
-0.80849
  20
-3.74579
  30
0.0
   0
SEQEND
   5
3A2
100
AcDbEntity
   8
LAYER0
   6
CONTINUOUS
   0
POLYLINE
   5
3A3
100
AcDbEntity
   8
LAYER0
   6
CONTINUOUS
  62
      9
100
AcDb2dPolyline
  66
      1
  10
0.0
  20
0.0
  30
0.0
  70
      1
  75
      5
   0
VERTEX
   5
3A4
100
AcDbEntity
   8
LAYER0
   6
CONTINUOUS
  62
      9
100
AcDbVertex
100
AcDb2dVertex
  10
-0.87099
  20
-3.85404
  30
0.0
   0
VERTEX
   5
3A5
100
AcDbEntity
   8
LAYER0
   6
CONTINUOUS
  62
      9
100
AcDbVertex
100
AcDb2dVertex
  10
-0.93349
  20
-3.74579
  30
0.0
   0
VERTEX
   5
3A6
100
AcDbEntity
   8
LAYER0
   6
CONTINUOUS
  62
      9
100
AcDbVertex
100
AcDb2dVertex
  10
-0.87099
  20
-4.74579
  30
0.0
   0
VERTEX
   5
3A7
100
AcDbEntity
   8
LAYER0
   6
CONTINUOUS
  62
      9
100
AcDbVertex
100
AcDb2dVertex
  10
-0.80849
  20
-4.63754
  30
0.0
   0
SEQEND
   5
3A8
100
AcDbEntity
   8
LAYER0
   6
CONTINUOUS
   0
POLYLINE
   5
3A9
100
AcDbEntity
   8
LAYER0
   6
CONTINUOUS
  62
      9
100
AcDb2dPolyline
  66
      1
  10
0.0
  20
0.0
  30
0.0
  70
      1
  75
      5
   0
VERTEX
   5
3AA
100
AcDbEntity
   8
LAYER0
   6
CONTINUOUS
  62
      9
100
AcDbVertex
100
AcDb2dVertex
  10
-0.87099
  20
-4.74579
  30
0.0
   0
VERTEX
   5
3AB
100
AcDbEntity
   8
LAYER0
   6
CONTINUOUS
  62
      9
100
AcDbVertex
100
AcDb2dVertex
  10
-0.93349
  20
-4.63754
  30
0.0
   0
VERTEX
   5
3AC
100
AcDbEntity
   8
LAYER0
   6
CONTINUOUS
  62
      9
100
AcDbVertex
100
AcDb2dVertex
  10
-0.99599
  20
-3.85405
  30
0.0
   0
VERTEX
   5
3AD
100
AcDbEntity
   8
LAYER0
   6
CONTINUOUS
  62
      9
100
AcDbVertex
100
AcDb2dVertex
  10
-0.93349
  20
-3.7458
  30
0.0
   0
SEQEND
   5
3AE
100
AcDbEntity
   8
LAYER0
   6
CONTINUOUS
   0
POLYLINE
   5
3AF
100
AcDbEntity
   8
LAYER0
   6
CONTINUOUS
  62
      9
100
AcDb2dPolyline
  66
      1
  10
0.0
  20
0.0
  30
0.0
  70
      1
  75
      5
   0
VERTEX
   5
3B0
100
AcDbEntity
   8
LAYER0
   6
CONTINUOUS
  62
      9
100
AcDbVertex
100
AcDb2dVertex
  10
-0.99599
  20
-3.85405
  30
0.0
   0
VERTEX
   5
3B1
100
AcDbEntity
   8
LAYER0
   6
CONTINUOUS
  62
      9
100
AcDbVertex
100
AcDb2dVertex
  10
-1.05849
  20
-3.7458
  30
0.0
   0
VERTEX
   5
3B2
100
AcDbEntity
   8
LAYER0
   6
CONTINUOUS
  62
      9
100
AcDbVertex
100
AcDb2dVertex
  10
-0.99599
  20
-4.7458
  30
0.0
   0
VERTEX
   5
3B3
100
AcDbEntity
   8
LAYER0
   6
CONTINUOUS
  62
      9
100
AcDbVertex
100
AcDb2dVertex
  10
-0.93349
  20
-4.63755
  30
0.0
   0
SEQEND
   5
3B4
100
AcDbEntity
   8
LAYER0
   6
CONTINUOUS
   0
POLYLINE
   5
3B5
100
AcDbEntity
   8
LAYER0
   6
CONTINUOUS
  62
      9
100
AcDb2dPolyline
  66
      1
  10
0.0
  20
0.0
  30
0.0
  70
      1
  75
      5
   0
VERTEX
   5
3B6
100
AcDbEntity
   8
LAYER0
   6
CONTINUOUS
  62
      9
100
AcDbVertex
100
AcDb2dVertex
  10
-0.99599
  20
-4.7458
  30
0.0
   0
VERTEX
   5
3B7
100
AcDbEntity
   8
LAYER0
   6
CONTINUOUS
  62
      9
100
AcDbVertex
100
AcDb2dVertex
  10
-1.05849
  20
-4.63755
  30
0.0
   0
VERTEX
   5
3B8
100
AcDbEntity
   8
LAYER0
   6
CONTINUOUS
  62
      9
100
AcDbVertex
100
AcDb2dVertex
  10
-1.12099
  20
-3.85406
  30
0.0
   0
VERTEX
   5
3B9
100
AcDbEntity
   8
LAYER0
   6
CONTINUOUS
  62
      9
100
AcDbVertex
100
AcDb2dVertex
  10
-1.05849
  20
-3.74581
  30
0.0
   0
SEQEND
   5
3BA
100
AcDbEntity
   8
LAYER0
   6
CONTINUOUS
   0
POLYLINE
   5
3BB
100
AcDbEntity
   8
LAYER0
   6
CONTINUOUS
  62
      9
100
AcDb2dPolyline
  66
      1
  10
0.0
  20
0.0
  30
0.0
  70
      1
  75
      5
   0
VERTEX
   5
3BC
100
AcDbEntity
   8
LAYER0
   6
CONTINUOUS
  62
      9
100
AcDbVertex
100
AcDb2dVertex
  10
-1.12099
  20
-3.85406
  30
0.0
   0
VERTEX
   5
3BD
100
AcDbEntity
   8
LAYER0
   6
CONTINUOUS
  62
      9
100
AcDbVertex
100
AcDb2dVertex
  10
-1.18349
  20
-3.74581
  30
0.0
   0
VERTEX
   5
3BE
100
AcDbEntity
   8
LAYER0
   6
CONTINUOUS
  62
      9
100
AcDbVertex
100
AcDb2dVertex
  10
-1.12099
  20
-4.74581
  30
0.0
   0
VERTEX
   5
3BF
100
AcDbEntity
   8
LAYER0
   6
CONTINUOUS
  62
      9
100
AcDbVertex
100
AcDb2dVertex
  10
-1.05849
  20
-4.63756
  30
0.0
   0
SEQEND
   5
3C0
100
AcDbEntity
   8
LAYER0
   6
CONTINUOUS
   0
POLYLINE
   5
3C1
100
AcDbEntity
   8
LAYER0
   6
CONTINUOUS
  62
      9
100
AcDb2dPolyline
  66
      1
  10
0.0
  20
0.0
  30
0.0
  70
      1
  75
      5
   0
VERTEX
   5
3C2
100
AcDbEntity
   8
LAYER0
   6
CONTINUOUS
  62
      9
100
AcDbVertex
100
AcDb2dVertex
  10
-1.12099
  20
-4.74581
  30
0.0
   0
VERTEX
   5
3C3
100
AcDbEntity
   8
LAYER0
   6
CONTINUOUS
  62
      9
100
AcDbVertex
100
AcDb2dVertex
  10
-1.18349
  20
-4.63756
  30
0.0
   0
VERTEX
   5
3C4
100
AcDbEntity
   8
LAYER0
   6
CONTINUOUS
  62
      9
100
AcDbVertex
100
AcDb2dVertex
  10
-1.24599
  20
-3.85407
  30
0.0
   0
VERTEX
   5
3C5
100
AcDbEntity
   8
LAYER0
   6
CONTINUOUS
  62
      9
100
AcDbVertex
100
AcDb2dVertex
  10
-1.18349
  20
-3.74582
  30
0.0
   0
SEQEND
   5
3C6
100
AcDbEntity
   8
LAYER0
   6
CONTINUOUS
   0
POLYLINE
   5
3C7
100
AcDbEntity
   8
LAYER0
   6
CONTINUOUS
  62
      9
100
AcDb2dPolyline
  66
      1
  10
0.0
  20
0.0
  30
0.0
  70
      1
  75
      5
   0
VERTEX
   5
3C8
100
AcDbEntity
   8
LAYER0
   6
CONTINUOUS
  62
      9
100
AcDbVertex
100
AcDb2dVertex
  10
-1.24599
  20
-3.85407
  30
0.0
   0
VERTEX
   5
3C9
100
AcDbEntity
   8
LAYER0
   6
CONTINUOUS
  62
      9
100
AcDbVertex
100
AcDb2dVertex
  10
-1.30849
  20
-3.74582
  30
0.0
   0
VERTEX
   5
3CA
100
AcDbEntity
   8
LAYER0
   6
CONTINUOUS
  62
      9
100
AcDbVertex
100
AcDb2dVertex
  10
-1.24599
  20
-4.74582
  30
0.0
   0
VERTEX
   5
3CB
100
AcDbEntity
   8
LAYER0
   6
CONTINUOUS
  62
      9
100
AcDbVertex
100
AcDb2dVertex
  10
-1.18349
  20
-4.63757
  30
0.0
   0
SEQEND
   5
3CC
100
AcDbEntity
   8
LAYER0
   6
CONTINUOUS
   0
POLYLINE
   5
3CD
100
AcDbEntity
   8
LAYER0
   6
CONTINUOUS
  62
      9
100
AcDb2dPolyline
  66
      1
  10
0.0
  20
0.0
  30
0.0
  70
      1
  75
      5
   0
VERTEX
   5
3CE
100
AcDbEntity
   8
LAYER0
   6
CONTINUOUS
  62
      9
100
AcDbVertex
100
AcDb2dVertex
  10
-1.24599
  20
-4.74582
  30
0.0
   0
VERTEX
   5
3CF
100
AcDbEntity
   8
LAYER0
   6
CONTINUOUS
  62
      9
100
AcDbVertex
100
AcDb2dVertex
  10
-1.30849
  20
-4.63757
  30
0.0
   0
VERTEX
   5
3D0
100
AcDbEntity
   8
LAYER0
   6
CONTINUOUS
  62
      9
100
AcDbVertex
100
AcDb2dVertex
  10
-1.37099
  20
-3.85408
  30
0.0
   0
VERTEX
   5
3D1
100
AcDbEntity
   8
LAYER0
   6
CONTINUOUS
  62
      9
100
AcDbVertex
100
AcDb2dVertex
  10
-1.30849
  20
-3.74583
  30
0.0
   0
SEQEND
   5
3D2
100
AcDbEntity
   8
LAYER0
   6
CONTINUOUS
   0
POLYLINE
   5
3D3
100
AcDbEntity
   8
LAYER0
   6
CONTINUOUS
  62
      9
100
AcDb2dPolyline
  66
      1
  10
0.0
  20
0.0
  30
0.0
  70
      1
  75
      5
   0
VERTEX
   5
3D4
100
AcDbEntity
   8
LAYER0
   6
CONTINUOUS
  62
      9
100
AcDbVertex
100
AcDb2dVertex
  10
-1.37099
  20
-3.85408
  30
0.0
   0
VERTEX
   5
3D5
100
AcDbEntity
   8
LAYER0
   6
CONTINUOUS
  62
      9
100
AcDbVertex
100
AcDb2dVertex
  10
-1.43349
  20
-3.74583
  30
0.0
   0
VERTEX
   5
3D6
100
AcDbEntity
   8
LAYER0
   6
CONTINUOUS
  62
      9
100
AcDbVertex
100
AcDb2dVertex
  10
-1.37099
  20
-4.74583
  30
0.0
   0
VERTEX
   5
3D7
100
AcDbEntity
   8
LAYER0
   6
CONTINUOUS
  62
      9
100
AcDbVertex
100
AcDb2dVertex
  10
-1.30849
  20
-4.63758
  30
0.0
   0
SEQEND
   5
3D8
100
AcDbEntity
   8
LAYER0
   6
CONTINUOUS
   0
POLYLINE
   5
3D9
100
AcDbEntity
   8
LAYER0
   6
CONTINUOUS
  62
      9
100
AcDb2dPolyline
  66
      1
  10
0.0
  20
0.0
  30
0.0
  70
      1
  75
      5
   0
VERTEX
   5
3DA
100
AcDbEntity
   8
LAYER0
   6
CONTINUOUS
  62
      9
100
AcDbVertex
100
AcDb2dVertex
  10
-1.37099
  20
-4.74583
  30
0.0
   0
VERTEX
   5
3DB
100
AcDbEntity
   8
LAYER0
   6
CONTINUOUS
  62
      9
100
AcDbVertex
100
AcDb2dVertex
  10
-1.43349
  20
-4.63758
  30
0.0
   0
VERTEX
   5
3DC
100
AcDbEntity
   8
LAYER0
   6
CONTINUOUS
  62
      9
100
AcDbVertex
100
AcDb2dVertex
  10
-1.49599
  20
-3.85409
  30
0.0
   0
VERTEX
   5
3DD
100
AcDbEntity
   8
LAYER0
   6
CONTINUOUS
  62
      9
100
AcDbVertex
100
AcDb2dVertex
  10
-1.43349
  20
-3.74584
  30
0.0
   0
SEQEND
   5
3DE
100
AcDbEntity
   8
LAYER0
   6
CONTINUOUS
   0
POLYLINE
   5
3DF
100
AcDbEntity
   8
LAYER0
   6
CONTINUOUS
  62
      9
100
AcDb2dPolyline
  66
      1
  10
0.0
  20
0.0
  30
0.0
  70
      1
  75
      5
   0
VERTEX
   5
3E0
100
AcDbEntity
   8
LAYER0
   6
CONTINUOUS
  62
      9
100
AcDbVertex
100
AcDb2dVertex
  10
-1.49599
  20
-3.85409
  30
0.0
   0
VERTEX
   5
3E1
100
AcDbEntity
   8
LAYER0
   6
CONTINUOUS
  62
      9
100
AcDbVertex
100
AcDb2dVertex
  10
-1.55849
  20
-3.74584
  30
0.0
   0
VERTEX
   5
3E2
100
AcDbEntity
   8
LAYER0
   6
CONTINUOUS
  62
      9
100
AcDbVertex
100
AcDb2dVertex
  10
-1.49599
  20
-4.74584
  30
0.0
   0
VERTEX
   5
3E3
100
AcDbEntity
   8
LAYER0
   6
CONTINUOUS
  62
      9
100
AcDbVertex
100
AcDb2dVertex
  10
-1.43349
  20
-4.63759
  30
0.0
   0
SEQEND
   5
3E4
100
AcDbEntity
   8
LAYER0
   6
CONTINUOUS
   0
POLYLINE
   5
3E5
100
AcDbEntity
   8
LAYER0
   6
CONTINUOUS
  62
      9
100
AcDb2dPolyline
  66
      1
  10
0.0
  20
0.0
  30
0.0
  70
      1
  75
      5
   0
VERTEX
   5
3E6
100
AcDbEntity
   8
LAYER0
   6
CONTINUOUS
  62
      9
100
AcDbVertex
100
AcDb2dVertex
  10
-1.49599
  20
-4.74584
  30
0.0
   0
VERTEX
   5
3E7
100
AcDbEntity
   8
LAYER0
   6
CONTINUOUS
  62
      9
100
AcDbVertex
100
AcDb2dVertex
  10
-1.55849
  20
-4.63759
  30
0.0
   0
VERTEX
   5
3E8
100
AcDbEntity
   8
LAYER0
   6
CONTINUOUS
  62
      9
100
AcDbVertex
100
AcDb2dVertex
  10
-1.62099
  20
-3.8541
  30
0.0
   0
VERTEX
   5
3E9
100
AcDbEntity
   8
LAYER0
   6
CONTINUOUS
  62
      9
100
AcDbVertex
100
AcDb2dVertex
  10
-1.55849
  20
-3.74585
  30
0.0
   0
SEQEND
   5
3EA
100
AcDbEntity
   8
LAYER0
   6
CONTINUOUS
   0
POLYLINE
   5
3EB
100
AcDbEntity
   8
LAYER0
   6
CONTINUOUS
  62
      9
100
AcDb2dPolyline
  66
      1
  10
0.0
  20
0.0
  30
0.0
  70
      1
  75
      5
   0
VERTEX
   5
3EC
100
AcDbEntity
   8
LAYER0
   6
CONTINUOUS
  62
      9
100
AcDbVertex
100
AcDb2dVertex
  10
-1.62099
  20
-3.8541
  30
0.0
   0
VERTEX
   5
3ED
100
AcDbEntity
   8
LAYER0
   6
CONTINUOUS
  62
      9
100
AcDbVertex
100
AcDb2dVertex
  10
-1.68349
  20
-3.74585
  30
0.0
   0
VERTEX
   5
3EE
100
AcDbEntity
   8
LAYER0
   6
CONTINUOUS
  62
      9
100
AcDbVertex
100
AcDb2dVertex
  10
-1.62099
  20
-4.74585
  30
0.0
   0
VERTEX
   5
3EF
100
AcDbEntity
   8
LAYER0
   6
CONTINUOUS
  62
      9
100
AcDbVertex
100
AcDb2dVertex
  10
-1.55849
  20
-4.6376
  30
0.0
   0
SEQEND
   5
3F0
100
AcDbEntity
   8
LAYER0
   6
CONTINUOUS
   0
POLYLINE
   5
3F1
100
AcDbEntity
   8
LAYER0
   6
CONTINUOUS
  62
      9
100
AcDb2dPolyline
  66
      1
  10
0.0
  20
0.0
  30
0.0
  70
      1
  75
      5
   0
VERTEX
   5
3F2
100
AcDbEntity
   8
LAYER0
   6
CONTINUOUS
  62
      9
100
AcDbVertex
100
AcDb2dVertex
  10
-1.62099
  20
-4.74585
  30
0.0
   0
VERTEX
   5
3F3
100
AcDbEntity
   8
LAYER0
   6
CONTINUOUS
  62
      9
100
AcDbVertex
100
AcDb2dVertex
  10
-1.68349
  20
-4.6376
  30
0.0
   0
VERTEX
   5
3F4
100
AcDbEntity
   8
LAYER0
   6
CONTINUOUS
  62
      9
100
AcDbVertex
100
AcDb2dVertex
  10
-1.74599
  20
-3.85411
  30
0.0
   0
VERTEX
   5
3F5
100
AcDbEntity
   8
LAYER0
   6
CONTINUOUS
  62
      9
100
AcDbVertex
100
AcDb2dVertex
  10
-1.68349
  20
-3.74586
  30
0.0
   0
SEQEND
   5
3F6
100
AcDbEntity
   8
LAYER0
   6
CONTINUOUS
   0
POLYLINE
   5
3F7
100
AcDbEntity
   8
LAYER0
   6
CONTINUOUS
  62
      9
100
AcDb2dPolyline
  66
      1
  10
0.0
  20
0.0
  30
0.0
  70
      1
  75
      5
   0
VERTEX
   5
3F8
100
AcDbEntity
   8
LAYER0
   6
CONTINUOUS
  62
      9
100
AcDbVertex
100
AcDb2dVertex
  10
-1.74599
  20
-3.85411
  30
0.0
   0
VERTEX
   5
3F9
100
AcDbEntity
   8
LAYER0
   6
CONTINUOUS
  62
      9
100
AcDbVertex
100
AcDb2dVertex
  10
-1.80849
  20
-3.74586
  30
0.0
   0
VERTEX
   5
3FA
100
AcDbEntity
   8
LAYER0
   6
CONTINUOUS
  62
      9
100
AcDbVertex
100
AcDb2dVertex
  10
-1.74599
  20
-4.74586
  30
0.0
   0
VERTEX
   5
3FB
100
AcDbEntity
   8
LAYER0
   6
CONTINUOUS
  62
      9
100
AcDbVertex
100
AcDb2dVertex
  10
-1.68349
  20
-4.63761
  30
0.0
   0
SEQEND
   5
3FC
100
AcDbEntity
   8
LAYER0
   6
CONTINUOUS
   0
POLYLINE
   5
3FD
100
AcDbEntity
   8
LAYER0
   6
CONTINUOUS
  62
      9
100
AcDb2dPolyline
  66
      1
  10
0.0
  20
0.0
  30
0.0
  70
      1
  75
      5
   0
VERTEX
   5
3FE
100
AcDbEntity
   8
LAYER0
   6
CONTINUOUS
  62
      9
100
AcDbVertex
100
AcDb2dVertex
  10
-1.74599
  20
-4.74586
  30
0.0
   0
VERTEX
   5
3FF
100
AcDbEntity
   8
LAYER0
   6
CONTINUOUS
  62
      9
100
AcDbVertex
100
AcDb2dVertex
  10
-1.80849
  20
-4.63761
  30
0.0
   0
VERTEX
   5
400
100
AcDbEntity
   8
LAYER0
   6
CONTINUOUS
  62
      9
100
AcDbVertex
100
AcDb2dVertex
  10
-1.87099
  20
-3.85412
  30
0.0
   0
VERTEX
   5
401
100
AcDbEntity
   8
LAYER0
   6
CONTINUOUS
  62
      9
100
AcDbVertex
100
AcDb2dVertex
  10
-1.80849
  20
-3.74587
  30
0.0
   0
SEQEND
   5
402
100
AcDbEntity
   8
LAYER0
   6
CONTINUOUS
   0
POLYLINE
   5
403
100
AcDbEntity
   8
LAYER0
   6
CONTINUOUS
  62
      9
100
AcDb2dPolyline
  66
      1
  10
0.0
  20
0.0
  30
0.0
  70
      1
  75
      5
   0
VERTEX
   5
404
100
AcDbEntity
   8
LAYER0
   6
CONTINUOUS
  62
      9
100
AcDbVertex
100
AcDb2dVertex
  10
-1.87099
  20
-3.85412
  30
0.0
   0
VERTEX
   5
405
100
AcDbEntity
   8
LAYER0
   6
CONTINUOUS
  62
      9
100
AcDbVertex
100
AcDb2dVertex
  10
-1.93349
  20
-3.74587
  30
0.0
   0
VERTEX
   5
406
100
AcDbEntity
   8
LAYER0
   6
CONTINUOUS
  62
      9
100
AcDbVertex
100
AcDb2dVertex
  10
-1.87099
  20
-4.74587
  30
0.0
   0
VERTEX
   5
407
100
AcDbEntity
   8
LAYER0
   6
CONTINUOUS
  62
      9
100
AcDbVertex
100
AcDb2dVertex
  10
-1.80849
  20
-4.63762
  30
0.0
   0
SEQEND
   5
408
100
AcDbEntity
   8
LAYER0
   6
CONTINUOUS
   0
POLYLINE
   5
409
100
AcDbEntity
   8
LAYER0
   6
CONTINUOUS
  62
      9
100
AcDb2dPolyline
  66
      1
  10
0.0
  20
0.0
  30
0.0
  70
      1
  75
      5
   0
VERTEX
   5
40A
100
AcDbEntity
   8
LAYER0
   6
CONTINUOUS
  62
      9
100
AcDbVertex
100
AcDb2dVertex
  10
-1.87099
  20
-4.74587
  30
0.0
   0
VERTEX
   5
40B
100
AcDbEntity
   8
LAYER0
   6
CONTINUOUS
  62
      9
100
AcDbVertex
100
AcDb2dVertex
  10
-1.93349
  20
-4.63762
  30
0.0
   0
VERTEX
   5
40C
100
AcDbEntity
   8
LAYER0
   6
CONTINUOUS
  62
      9
100
AcDbVertex
100
AcDb2dVertex
  10
-1.99599
  20
-3.85413
  30
0.0
   0
VERTEX
   5
40D
100
AcDbEntity
   8
LAYER0
   6
CONTINUOUS
  62
      9
100
AcDbVertex
100
AcDb2dVertex
  10
-1.93349
  20
-3.74588
  30
0.0
   0
SEQEND
   5
40E
100
AcDbEntity
   8
LAYER0
   6
CONTINUOUS
   0
POLYLINE
   5
40F
100
AcDbEntity
   8
LAYER0
   6
CONTINUOUS
  62
      9
100
AcDb2dPolyline
  66
      1
  10
0.0
  20
0.0
  30
0.0
  70
      1
  75
      5
   0
VERTEX
   5
410
100
AcDbEntity
   8
LAYER0
   6
CONTINUOUS
  62
      9
100
AcDbVertex
100
AcDb2dVertex
  10
-1.99599
  20
-3.85413
  30
0.0
   0
VERTEX
   5
411
100
AcDbEntity
   8
LAYER0
   6
CONTINUOUS
  62
      9
100
AcDbVertex
100
AcDb2dVertex
  10
-2.05849
  20
-3.74588
  30
0.0
   0
VERTEX
   5
412
100
AcDbEntity
   8
LAYER0
   6
CONTINUOUS
  62
      9
100
AcDbVertex
100
AcDb2dVertex
  10
-1.99599
  20
-4.74588
  30
0.0
   0
VERTEX
   5
413
100
AcDbEntity
   8
LAYER0
   6
CONTINUOUS
  62
      9
100
AcDbVertex
100
AcDb2dVertex
  10
-1.93349
  20
-4.63763
  30
0.0
   0
SEQEND
   5
414
100
AcDbEntity
   8
LAYER0
   6
CONTINUOUS
   0
POLYLINE
   5
415
100
AcDbEntity
   8
LAYER0
   6
CONTINUOUS
  62
      9
100
AcDb2dPolyline
  66
      1
  10
0.0
  20
0.0
  30
0.0
  70
      1
  75
      5
   0
VERTEX
   5
416
100
AcDbEntity
   8
LAYER0
   6
CONTINUOUS
  62
      9
100
AcDbVertex
100
AcDb2dVertex
  10
-1.99599
  20
-4.74588
  30
0.0
   0
VERTEX
   5
417
100
AcDbEntity
   8
LAYER0
   6
CONTINUOUS
  62
      9
100
AcDbVertex
100
AcDb2dVertex
  10
-2.05849
  20
-4.63763
  30
0.0
   0
VERTEX
   5
418
100
AcDbEntity
   8
LAYER0
   6
CONTINUOUS
  62
      9
100
AcDbVertex
100
AcDb2dVertex
  10
-2.12099
  20
-3.85414
  30
0.0
   0
VERTEX
   5
419
100
AcDbEntity
   8
LAYER0
   6
CONTINUOUS
  62
      9
100
AcDbVertex
100
AcDb2dVertex
  10
-2.05849
  20
-3.74589
  30
0.0
   0
SEQEND
   5
41A
100
AcDbEntity
   8
LAYER0
   6
CONTINUOUS
   0
POLYLINE
   5
41B
100
AcDbEntity
   8
LAYER0
   6
CONTINUOUS
  62
      9
100
AcDb2dPolyline
  66
      1
  10
0.0
  20
0.0
  30
0.0
  70
      1
  75
      5
   0
VERTEX
   5
41C
100
AcDbEntity
   8
LAYER0
   6
CONTINUOUS
  62
      9
100
AcDbVertex
100
AcDb2dVertex
  10
-2.12099
  20
-3.85414
  30
0.0
   0
VERTEX
   5
41D
100
AcDbEntity
   8
LAYER0
   6
CONTINUOUS
  62
      9
100
AcDbVertex
100
AcDb2dVertex
  10
-2.18349
  20
-3.74589
  30
0.0
   0
VERTEX
   5
41E
100
AcDbEntity
   8
LAYER0
   6
CONTINUOUS
  62
      9
100
AcDbVertex
100
AcDb2dVertex
  10
-2.12099
  20
-4.74589
  30
0.0
   0
VERTEX
   5
41F
100
AcDbEntity
   8
LAYER0
   6
CONTINUOUS
  62
      9
100
AcDbVertex
100
AcDb2dVertex
  10
-2.05849
  20
-4.63764
  30
0.0
   0
SEQEND
   5
420
100
AcDbEntity
   8
LAYER0
   6
CONTINUOUS
   0
POLYLINE
   5
421
100
AcDbEntity
   8
LAYER0
   6
CONTINUOUS
  62
      9
100
AcDb2dPolyline
  66
      1
  10
0.0
  20
0.0
  30
0.0
  70
      1
  75
      5
   0
VERTEX
   5
422
100
AcDbEntity
   8
LAYER0
   6
CONTINUOUS
  62
      9
100
AcDbVertex
100
AcDb2dVertex
  10
-2.12099
  20
-4.74589
  30
0.0
   0
VERTEX
   5
423
100
AcDbEntity
   8
LAYER0
   6
CONTINUOUS
  62
      9
100
AcDbVertex
100
AcDb2dVertex
  10
-2.18349
  20
-4.63764
  30
0.0
   0
VERTEX
   5
424
100
AcDbEntity
   8
LAYER0
   6
CONTINUOUS
  62
      9
100
AcDbVertex
100
AcDb2dVertex
  10
-2.24599
  20
-3.85415
  30
0.0
   0
VERTEX
   5
425
100
AcDbEntity
   8
LAYER0
   6
CONTINUOUS
  62
      9
100
AcDbVertex
100
AcDb2dVertex
  10
-2.18349
  20
-3.7459
  30
0.0
   0
SEQEND
   5
426
100
AcDbEntity
   8
LAYER0
   6
CONTINUOUS
   0
POLYLINE
   5
427
100
AcDbEntity
   8
LAYER0
   6
CONTINUOUS
  62
      9
100
AcDb2dPolyline
  66
      1
  10
0.0
  20
0.0
  30
0.0
  70
      1
  75
      5
   0
VERTEX
   5
428
100
AcDbEntity
   8
LAYER0
   6
CONTINUOUS
  62
      9
100
AcDbVertex
100
AcDb2dVertex
  10
-2.24599
  20
-3.85415
  30
0.0
   0
VERTEX
   5
429
100
AcDbEntity
   8
LAYER0
   6
CONTINUOUS
  62
      9
100
AcDbVertex
100
AcDb2dVertex
  10
-2.30849
  20
-3.7459
  30
0.0
   0
VERTEX
   5
42A
100
AcDbEntity
   8
LAYER0
   6
CONTINUOUS
  62
      9
100
AcDbVertex
100
AcDb2dVertex
  10
-2.24599
  20
-4.7459
  30
0.0
   0
VERTEX
   5
42B
100
AcDbEntity
   8
LAYER0
   6
CONTINUOUS
  62
      9
100
AcDbVertex
100
AcDb2dVertex
  10
-2.18349
  20
-4.63765
  30
0.0
   0
SEQEND
   5
42C
100
AcDbEntity
   8
LAYER0
   6
CONTINUOUS
   0
POLYLINE
   5
42D
100
AcDbEntity
   8
LAYER0
   6
CONTINUOUS
  62
      9
100
AcDb2dPolyline
  66
      1
  10
0.0
  20
0.0
  30
0.0
  70
      1
  75
      5
   0
VERTEX
   5
42E
100
AcDbEntity
   8
LAYER0
   6
CONTINUOUS
  62
      9
100
AcDbVertex
100
AcDb2dVertex
  10
-2.24599
  20
-4.7459
  30
0.0
   0
VERTEX
   5
42F
100
AcDbEntity
   8
LAYER0
   6
CONTINUOUS
  62
      9
100
AcDbVertex
100
AcDb2dVertex
  10
-2.30849
  20
-4.63765
  30
0.0
   0
VERTEX
   5
430
100
AcDbEntity
   8
LAYER0
   6
CONTINUOUS
  62
      9
100
AcDbVertex
100
AcDb2dVertex
  10
-2.37099
  20
-3.85416
  30
0.0
   0
VERTEX
   5
431
100
AcDbEntity
   8
LAYER0
   6
CONTINUOUS
  62
      9
100
AcDbVertex
100
AcDb2dVertex
  10
-2.30849
  20
-3.74591
  30
0.0
   0
SEQEND
   5
432
100
AcDbEntity
   8
LAYER0
   6
CONTINUOUS
   0
POLYLINE
   5
433
100
AcDbEntity
   8
LAYER0
   6
CONTINUOUS
  62
      9
100
AcDb2dPolyline
  66
      1
  10
0.0
  20
0.0
  30
0.0
  70
      1
  75
      5
   0
VERTEX
   5
434
100
AcDbEntity
   8
LAYER0
   6
CONTINUOUS
  62
      9
100
AcDbVertex
100
AcDb2dVertex
  10
-2.37099
  20
-3.85416
  30
0.0
   0
VERTEX
   5
435
100
AcDbEntity
   8
LAYER0
   6
CONTINUOUS
  62
      9
100
AcDbVertex
100
AcDb2dVertex
  10
-2.43349
  20
-3.74591
  30
0.0
   0
VERTEX
   5
436
100
AcDbEntity
   8
LAYER0
   6
CONTINUOUS
  62
      9
100
AcDbVertex
100
AcDb2dVertex
  10
-2.37099
  20
-4.74591
  30
0.0
   0
VERTEX
   5
437
100
AcDbEntity
   8
LAYER0
   6
CONTINUOUS
  62
      9
100
AcDbVertex
100
AcDb2dVertex
  10
-2.30849
  20
-4.63766
  30
0.0
   0
SEQEND
   5
438
100
AcDbEntity
   8
LAYER0
   6
CONTINUOUS
   0
POLYLINE
   5
439
100
AcDbEntity
   8
LAYER0
   6
CONTINUOUS
  62
      9
100
AcDb2dPolyline
  66
      1
  10
0.0
  20
0.0
  30
0.0
  70
      1
  75
      5
   0
VERTEX
   5
43A
100
AcDbEntity
   8
LAYER0
   6
CONTINUOUS
  62
      9
100
AcDbVertex
100
AcDb2dVertex
  10
-2.37099
  20
-4.74591
  30
0.0
   0
VERTEX
   5
43B
100
AcDbEntity
   8
LAYER0
   6
CONTINUOUS
  62
      9
100
AcDbVertex
100
AcDb2dVertex
  10
-2.43349
  20
-4.63766
  30
0.0
   0
VERTEX
   5
43C
100
AcDbEntity
   8
LAYER0
   6
CONTINUOUS
  62
      9
100
AcDbVertex
100
AcDb2dVertex
  10
-2.49599
  20
-3.85417
  30
0.0
   0
VERTEX
   5
43D
100
AcDbEntity
   8
LAYER0
   6
CONTINUOUS
  62
      9
100
AcDbVertex
100
AcDb2dVertex
  10
-2.43349
  20
-3.74592
  30
0.0
   0
SEQEND
   5
43E
100
AcDbEntity
   8
LAYER0
   6
CONTINUOUS
   0
POLYLINE
   5
43F
100
AcDbEntity
   8
LAYER0
   6
CONTINUOUS
  62
      9
100
AcDb2dPolyline
  66
      1
  10
0.0
  20
0.0
  30
0.0
  70
      1
  75
      5
   0
VERTEX
   5
440
100
AcDbEntity
   8
LAYER0
   6
CONTINUOUS
  62
      9
100
AcDbVertex
100
AcDb2dVertex
  10
-2.49599
  20
-3.85417
  30
0.0
   0
VERTEX
   5
441
100
AcDbEntity
   8
LAYER0
   6
CONTINUOUS
  62
      9
100
AcDbVertex
100
AcDb2dVertex
  10
-2.55849
  20
-3.74592
  30
0.0
   0
VERTEX
   5
442
100
AcDbEntity
   8
LAYER0
   6
CONTINUOUS
  62
      9
100
AcDbVertex
100
AcDb2dVertex
  10
-2.49599
  20
-4.74592
  30
0.0
   0
VERTEX
   5
443
100
AcDbEntity
   8
LAYER0
   6
CONTINUOUS
  62
      9
100
AcDbVertex
100
AcDb2dVertex
  10
-2.43349
  20
-4.63767
  30
0.0
   0
SEQEND
   5
444
100
AcDbEntity
   8
LAYER0
   6
CONTINUOUS
   0
POLYLINE
   5
445
100
AcDbEntity
   8
LAYER0
   6
CONTINUOUS
  62
      9
100
AcDb2dPolyline
  66
      1
  10
0.0
  20
0.0
  30
0.0
  70
      1
  75
      5
   0
VERTEX
   5
446
100
AcDbEntity
   8
LAYER0
   6
CONTINUOUS
  62
      9
100
AcDbVertex
100
AcDb2dVertex
  10
-2.49599
  20
-4.74592
  30
0.0
   0
VERTEX
   5
447
100
AcDbEntity
   8
LAYER0
   6
CONTINUOUS
  62
      9
100
AcDbVertex
100
AcDb2dVertex
  10
-2.55849
  20
-4.63767
  30
0.0
   0
VERTEX
   5
448
100
AcDbEntity
   8
LAYER0
   6
CONTINUOUS
  62
      9
100
AcDbVertex
100
AcDb2dVertex
  10
-2.62099
  20
-3.85418
  30
0.0
   0
VERTEX
   5
449
100
AcDbEntity
   8
LAYER0
   6
CONTINUOUS
  62
      9
100
AcDbVertex
100
AcDb2dVertex
  10
-2.55849
  20
-3.74593
  30
0.0
   0
SEQEND
   5
44A
100
AcDbEntity
   8
LAYER0
   6
CONTINUOUS
   0
POLYLINE
   5
44B
100
AcDbEntity
   8
LAYER0
   6
CONTINUOUS
  62
      9
100
AcDb2dPolyline
  66
      1
  10
0.0
  20
0.0
  30
0.0
  70
      1
  75
      5
   0
VERTEX
   5
44C
100
AcDbEntity
   8
LAYER0
   6
CONTINUOUS
  62
      9
100
AcDbVertex
100
AcDb2dVertex
  10
-2.62099
  20
-3.85418
  30
0.0
   0
VERTEX
   5
44D
100
AcDbEntity
   8
LAYER0
   6
CONTINUOUS
  62
      9
100
AcDbVertex
100
AcDb2dVertex
  10
-2.68349
  20
-3.74593
  30
0.0
   0
VERTEX
   5
44E
100
AcDbEntity
   8
LAYER0
   6
CONTINUOUS
  62
      9
100
AcDbVertex
100
AcDb2dVertex
  10
-2.62099
  20
-4.74593
  30
0.0
   0
VERTEX
   5
44F
100
AcDbEntity
   8
LAYER0
   6
CONTINUOUS
  62
      9
100
AcDbVertex
100
AcDb2dVertex
  10
-2.55849
  20
-4.63768
  30
0.0
   0
SEQEND
   5
450
100
AcDbEntity
   8
LAYER0
   6
CONTINUOUS
   0
POLYLINE
   5
451
100
AcDbEntity
   8
LAYER0
   6
CONTINUOUS
  62
      9
100
AcDb2dPolyline
  66
      1
  10
0.0
  20
0.0
  30
0.0
  70
      1
  75
      5
   0
VERTEX
   5
452
100
AcDbEntity
   8
LAYER0
   6
CONTINUOUS
  62
      9
100
AcDbVertex
100
AcDb2dVertex
  10
-2.62099
  20
-4.74593
  30
0.0
   0
VERTEX
   5
453
100
AcDbEntity
   8
LAYER0
   6
CONTINUOUS
  62
      9
100
AcDbVertex
100
AcDb2dVertex
  10
-2.68349
  20
-4.63768
  30
0.0
   0
VERTEX
   5
454
100
AcDbEntity
   8
LAYER0
   6
CONTINUOUS
  62
      9
100
AcDbVertex
100
AcDb2dVertex
  10
-2.74599
  20
-3.85419
  30
0.0
   0
VERTEX
   5
455
100
AcDbEntity
   8
LAYER0
   6
CONTINUOUS
  62
      9
100
AcDbVertex
100
AcDb2dVertex
  10
-2.68349
  20
-3.74594
  30
0.0
   0
SEQEND
   5
456
100
AcDbEntity
   8
LAYER0
   6
CONTINUOUS
   0
POLYLINE
   5
457
100
AcDbEntity
   8
LAYER0
   6
CONTINUOUS
  62
      9
100
AcDb2dPolyline
  66
      1
  10
0.0
  20
0.0
  30
0.0
  70
      1
  75
      5
   0
VERTEX
   5
458
100
AcDbEntity
   8
LAYER0
   6
CONTINUOUS
  62
      9
100
AcDbVertex
100
AcDb2dVertex
  10
-2.74599
  20
-3.85419
  30
0.0
   0
VERTEX
   5
459
100
AcDbEntity
   8
LAYER0
   6
CONTINUOUS
  62
      9
100
AcDbVertex
100
AcDb2dVertex
  10
-2.80849
  20
-3.74594
  30
0.0
   0
VERTEX
   5
45A
100
AcDbEntity
   8
LAYER0
   6
CONTINUOUS
  62
      9
100
AcDbVertex
100
AcDb2dVertex
  10
-2.74599
  20
-4.74594
  30
0.0
   0
VERTEX
   5
45B
100
AcDbEntity
   8
LAYER0
   6
CONTINUOUS
  62
      9
100
AcDbVertex
100
AcDb2dVertex
  10
-2.68349
  20
-4.63769
  30
0.0
   0
SEQEND
   5
45C
100
AcDbEntity
   8
LAYER0
   6
CONTINUOUS
   0
POLYLINE
   5
45D
100
AcDbEntity
   8
LAYER0
   6
CONTINUOUS
  62
      9
100
AcDb2dPolyline
  66
      1
  10
0.0
  20
0.0
  30
0.0
  70
      1
  75
      5
   0
VERTEX
   5
45E
100
AcDbEntity
   8
LAYER0
   6
CONTINUOUS
  62
      9
100
AcDbVertex
100
AcDb2dVertex
  10
-2.74599
  20
-4.74594
  30
0.0
   0
VERTEX
   5
45F
100
AcDbEntity
   8
LAYER0
   6
CONTINUOUS
  62
      9
100
AcDbVertex
100
AcDb2dVertex
  10
-2.80849
  20
-4.63769
  30
0.0
   0
VERTEX
   5
460
100
AcDbEntity
   8
LAYER0
   6
CONTINUOUS
  62
      9
100
AcDbVertex
100
AcDb2dVertex
  10
-2.87099
  20
-3.8542
  30
0.0
   0
VERTEX
   5
461
100
AcDbEntity
   8
LAYER0
   6
CONTINUOUS
  62
      9
100
AcDbVertex
100
AcDb2dVertex
  10
-2.80849
  20
-3.74595
  30
0.0
   0
SEQEND
   5
462
100
AcDbEntity
   8
LAYER0
   6
CONTINUOUS
   0
POLYLINE
   5
463
100
AcDbEntity
   8
LAYER0
   6
CONTINUOUS
  62
      9
100
AcDb2dPolyline
  66
      1
  10
0.0
  20
0.0
  30
0.0
  70
      1
  75
      5
   0
VERTEX
   5
464
100
AcDbEntity
   8
LAYER0
   6
CONTINUOUS
  62
      9
100
AcDbVertex
100
AcDb2dVertex
  10
-2.87099
  20
-3.8542
  30
0.0
   0
VERTEX
   5
465
100
AcDbEntity
   8
LAYER0
   6
CONTINUOUS
  62
      9
100
AcDbVertex
100
AcDb2dVertex
  10
-2.93349
  20
-3.74595
  30
0.0
   0
VERTEX
   5
466
100
AcDbEntity
   8
LAYER0
   6
CONTINUOUS
  62
      9
100
AcDbVertex
100
AcDb2dVertex
  10
-2.87099
  20
-4.74595
  30
0.0
   0
VERTEX
   5
467
100
AcDbEntity
   8
LAYER0
   6
CONTINUOUS
  62
      9
100
AcDbVertex
100
AcDb2dVertex
  10
-2.80849
  20
-4.6377
  30
0.0
   0
SEQEND
   5
468
100
AcDbEntity
   8
LAYER0
   6
CONTINUOUS
   0
POLYLINE
   5
469
100
AcDbEntity
   8
LAYER0
   6
CONTINUOUS
  62
      9
100
AcDb2dPolyline
  66
      1
  10
0.0
  20
0.0
  30
0.0
  70
      1
  75
      5
   0
VERTEX
   5
46A
100
AcDbEntity
   8
LAYER0
   6
CONTINUOUS
  62
      9
100
AcDbVertex
100
AcDb2dVertex
  10
-2.87099
  20
-4.74595
  30
0.0
   0
VERTEX
   5
46B
100
AcDbEntity
   8
LAYER0
   6
CONTINUOUS
  62
      9
100
AcDbVertex
100
AcDb2dVertex
  10
-2.93349
  20
-4.6377
  30
0.0
   0
VERTEX
   5
46C
100
AcDbEntity
   8
LAYER0
   6
CONTINUOUS
  62
      9
100
AcDbVertex
100
AcDb2dVertex
  10
-2.99599
  20
-3.85421
  30
0.0
   0
VERTEX
   5
46D
100
AcDbEntity
   8
LAYER0
   6
CONTINUOUS
  62
      9
100
AcDbVertex
100
AcDb2dVertex
  10
-2.93349
  20
-3.74596
  30
0.0
   0
SEQEND
   5
46E
100
AcDbEntity
   8
LAYER0
   6
CONTINUOUS
   0
POLYLINE
   5
46F
100
AcDbEntity
   8
LAYER0
   6
CONTINUOUS
  62
      9
100
AcDb2dPolyline
  66
      1
  10
0.0
  20
0.0
  30
0.0
  70
      1
  75
      5
   0
VERTEX
   5
470
100
AcDbEntity
   8
LAYER0
   6
CONTINUOUS
  62
      9
100
AcDbVertex
100
AcDb2dVertex
  10
-2.99599
  20
-3.85421
  30
0.0
   0
VERTEX
   5
471
100
AcDbEntity
   8
LAYER0
   6
CONTINUOUS
  62
      9
100
AcDbVertex
100
AcDb2dVertex
  10
-3.05849
  20
-3.74596
  30
0.0
   0
VERTEX
   5
472
100
AcDbEntity
   8
LAYER0
   6
CONTINUOUS
  62
      9
100
AcDbVertex
100
AcDb2dVertex
  10
-2.99599
  20
-4.74596
  30
0.0
   0
VERTEX
   5
473
100
AcDbEntity
   8
LAYER0
   6
CONTINUOUS
  62
      9
100
AcDbVertex
100
AcDb2dVertex
  10
-2.93349
  20
-4.63771
  30
0.0
   0
SEQEND
   5
474
100
AcDbEntity
   8
LAYER0
   6
CONTINUOUS
   0
POLYLINE
   5
475
100
AcDbEntity
   8
LAYER0
   6
CONTINUOUS
  62
      9
100
AcDb2dPolyline
  66
      1
  10
0.0
  20
0.0
  30
0.0
  70
      1
  75
      5
   0
VERTEX
   5
476
100
AcDbEntity
   8
LAYER0
   6
CONTINUOUS
  62
      9
100
AcDbVertex
100
AcDb2dVertex
  10
-2.99599
  20
-4.74596
  30
0.0
   0
VERTEX
   5
477
100
AcDbEntity
   8
LAYER0
   6
CONTINUOUS
  62
      9
100
AcDbVertex
100
AcDb2dVertex
  10
-3.05849
  20
-4.63771
  30
0.0
   0
VERTEX
   5
478
100
AcDbEntity
   8
LAYER0
   6
CONTINUOUS
  62
      9
100
AcDbVertex
100
AcDb2dVertex
  10
-3.12099
  20
-3.85422
  30
0.0
   0
VERTEX
   5
479
100
AcDbEntity
   8
LAYER0
   6
CONTINUOUS
  62
      9
100
AcDbVertex
100
AcDb2dVertex
  10
-3.05849
  20
-3.74597
  30
0.0
   0
SEQEND
   5
47A
100
AcDbEntity
   8
LAYER0
   6
CONTINUOUS
   0
POLYLINE
   5
47B
100
AcDbEntity
   8
LAYER0
   6
CONTINUOUS
  62
      9
100
AcDb2dPolyline
  66
      1
  10
0.0
  20
0.0
  30
0.0
  70
      1
  75
      5
   0
VERTEX
   5
47C
100
AcDbEntity
   8
LAYER0
   6
CONTINUOUS
  62
      9
100
AcDbVertex
100
AcDb2dVertex
  10
-3.12099
  20
-3.85422
  30
0.0
   0
VERTEX
   5
47D
100
AcDbEntity
   8
LAYER0
   6
CONTINUOUS
  62
      9
100
AcDbVertex
100
AcDb2dVertex
  10
-3.18349
  20
-3.74597
  30
0.0
   0
VERTEX
   5
47E
100
AcDbEntity
   8
LAYER0
   6
CONTINUOUS
  62
      9
100
AcDbVertex
100
AcDb2dVertex
  10
-3.12099
  20
-4.74597
  30
0.0
   0
VERTEX
   5
47F
100
AcDbEntity
   8
LAYER0
   6
CONTINUOUS
  62
      9
100
AcDbVertex
100
AcDb2dVertex
  10
-3.05849
  20
-4.63772
  30
0.0
   0
SEQEND
   5
480
100
AcDbEntity
   8
LAYER0
   6
CONTINUOUS
   0
POLYLINE
   5
481
100
AcDbEntity
   8
LAYER0
   6
CONTINUOUS
  62
      9
100
AcDb2dPolyline
  66
      1
  10
0.0
  20
0.0
  30
0.0
  70
      1
  75
      5
   0
VERTEX
   5
482
100
AcDbEntity
   8
LAYER0
   6
CONTINUOUS
  62
      9
100
AcDbVertex
100
AcDb2dVertex
  10
-3.12099
  20
-4.74597
  30
0.0
   0
VERTEX
   5
483
100
AcDbEntity
   8
LAYER0
   6
CONTINUOUS
  62
      9
100
AcDbVertex
100
AcDb2dVertex
  10
-3.18349
  20
-4.63772
  30
0.0
   0
VERTEX
   5
484
100
AcDbEntity
   8
LAYER0
   6
CONTINUOUS
  62
      9
100
AcDbVertex
100
AcDb2dVertex
  10
-3.24599
  20
-3.85423
  30
0.0
   0
VERTEX
   5
485
100
AcDbEntity
   8
LAYER0
   6
CONTINUOUS
  62
      9
100
AcDbVertex
100
AcDb2dVertex
  10
-3.18349
  20
-3.74598
  30
0.0
   0
SEQEND
   5
486
100
AcDbEntity
   8
LAYER0
   6
CONTINUOUS
   0
POLYLINE
   5
487
100
AcDbEntity
   8
LAYER0
   6
CONTINUOUS
  62
      9
100
AcDb2dPolyline
  66
      1
  10
0.0
  20
0.0
  30
0.0
  70
      1
  75
      5
   0
VERTEX
   5
488
100
AcDbEntity
   8
LAYER0
   6
CONTINUOUS
  62
      9
100
AcDbVertex
100
AcDb2dVertex
  10
-3.24599
  20
-3.85423
  30
0.0
   0
VERTEX
   5
489
100
AcDbEntity
   8
LAYER0
   6
CONTINUOUS
  62
      9
100
AcDbVertex
100
AcDb2dVertex
  10
-3.30849
  20
-3.74598
  30
0.0
   0
VERTEX
   5
48A
100
AcDbEntity
   8
LAYER0
   6
CONTINUOUS
  62
      9
100
AcDbVertex
100
AcDb2dVertex
  10
-3.24599
  20
-4.74598
  30
0.0
   0
VERTEX
   5
48B
100
AcDbEntity
   8
LAYER0
   6
CONTINUOUS
  62
      9
100
AcDbVertex
100
AcDb2dVertex
  10
-3.18349
  20
-4.63773
  30
0.0
   0
SEQEND
   5
48C
100
AcDbEntity
   8
LAYER0
   6
CONTINUOUS
   0
POLYLINE
   5
48D
100
AcDbEntity
   8
LAYER0
   6
CONTINUOUS
  62
      9
100
AcDb2dPolyline
  66
      1
  10
0.0
  20
0.0
  30
0.0
  70
      1
  75
      5
   0
VERTEX
   5
48E
100
AcDbEntity
   8
LAYER0
   6
CONTINUOUS
  62
      9
100
AcDbVertex
100
AcDb2dVertex
  10
-3.24599
  20
-4.74598
  30
0.0
   0
VERTEX
   5
48F
100
AcDbEntity
   8
LAYER0
   6
CONTINUOUS
  62
      9
100
AcDbVertex
100
AcDb2dVertex
  10
-3.30849
  20
-4.63773
  30
0.0
   0
VERTEX
   5
490
100
AcDbEntity
   8
LAYER0
   6
CONTINUOUS
  62
      9
100
AcDbVertex
100
AcDb2dVertex
  10
-3.37099
  20
-3.85424
  30
0.0
   0
VERTEX
   5
491
100
AcDbEntity
   8
LAYER0
   6
CONTINUOUS
  62
      9
100
AcDbVertex
100
AcDb2dVertex
  10
-3.30849
  20
-3.74599
  30
0.0
   0
SEQEND
   5
492
100
AcDbEntity
   8
LAYER0
   6
CONTINUOUS
   0
POLYLINE
   5
493
100
AcDbEntity
   8
LAYER0
   6
CONTINUOUS
  62
      9
100
AcDb2dPolyline
  66
      1
  10
0.0
  20
0.0
  30
0.0
  70
      1
  75
      5
   0
VERTEX
   5
494
100
AcDbEntity
   8
LAYER0
   6
CONTINUOUS
  62
      9
100
AcDbVertex
100
AcDb2dVertex
  10
-3.37099
  20
-3.85424
  30
0.0
   0
VERTEX
   5
495
100
AcDbEntity
   8
LAYER0
   6
CONTINUOUS
  62
      9
100
AcDbVertex
100
AcDb2dVertex
  10
-3.43349
  20
-3.74599
  30
0.0
   0
VERTEX
   5
496
100
AcDbEntity
   8
LAYER0
   6
CONTINUOUS
  62
      9
100
AcDbVertex
100
AcDb2dVertex
  10
-3.37099
  20
-4.74599
  30
0.0
   0
VERTEX
   5
497
100
AcDbEntity
   8
LAYER0
   6
CONTINUOUS
  62
      9
100
AcDbVertex
100
AcDb2dVertex
  10
-3.30849
  20
-4.63774
  30
0.0
   0
SEQEND
   5
498
100
AcDbEntity
   8
LAYER0
   6
CONTINUOUS
   0
POLYLINE
   5
499
100
AcDbEntity
   8
LAYER0
   6
CONTINUOUS
  62
      9
100
AcDb2dPolyline
  66
      1
  10
0.0
  20
0.0
  30
0.0
  70
      1
  75
      5
   0
VERTEX
   5
49A
100
AcDbEntity
   8
LAYER0
   6
CONTINUOUS
  62
      9
100
AcDbVertex
100
AcDb2dVertex
  10
-3.37099
  20
-4.74599
  30
0.0
   0
VERTEX
   5
49B
100
AcDbEntity
   8
LAYER0
   6
CONTINUOUS
  62
      9
100
AcDbVertex
100
AcDb2dVertex
  10
-3.43349
  20
-4.63774
  30
0.0
   0
VERTEX
   5
49C
100
AcDbEntity
   8
LAYER0
   6
CONTINUOUS
  62
      9
100
AcDbVertex
100
AcDb2dVertex
  10
-3.49599
  20
-3.85425
  30
0.0
   0
VERTEX
   5
49D
100
AcDbEntity
   8
LAYER0
   6
CONTINUOUS
  62
      9
100
AcDbVertex
100
AcDb2dVertex
  10
-3.43349
  20
-3.746
  30
0.0
   0
SEQEND
   5
49E
100
AcDbEntity
   8
LAYER0
   6
CONTINUOUS
   0
POLYLINE
   5
49F
100
AcDbEntity
   8
LAYER0
   6
CONTINUOUS
  62
      9
100
AcDb2dPolyline
  66
      1
  10
0.0
  20
0.0
  30
0.0
  70
      1
  75
      5
   0
VERTEX
   5
4A0
100
AcDbEntity
   8
LAYER0
   6
CONTINUOUS
  62
      9
100
AcDbVertex
100
AcDb2dVertex
  10
-3.49599
  20
-3.85425
  30
0.0
   0
VERTEX
   5
4A1
100
AcDbEntity
   8
LAYER0
   6
CONTINUOUS
  62
      9
100
AcDbVertex
100
AcDb2dVertex
  10
-3.55849
  20
-3.746
  30
0.0
   0
VERTEX
   5
4A2
100
AcDbEntity
   8
LAYER0
   6
CONTINUOUS
  62
      9
100
AcDbVertex
100
AcDb2dVertex
  10
-3.49599
  20
-4.746
  30
0.0
   0
VERTEX
   5
4A3
100
AcDbEntity
   8
LAYER0
   6
CONTINUOUS
  62
      9
100
AcDbVertex
100
AcDb2dVertex
  10
-3.43349
  20
-4.63775
  30
0.0
   0
SEQEND
   5
4A4
100
AcDbEntity
   8
LAYER0
   6
CONTINUOUS
   0
POLYLINE
   5
4A5
100
AcDbEntity
   8
LAYER0
   6
CONTINUOUS
  62
      9
100
AcDb2dPolyline
  66
      1
  10
0.0
  20
0.0
  30
0.0
  70
      1
  75
      5
   0
VERTEX
   5
4A6
100
AcDbEntity
   8
LAYER0
   6
CONTINUOUS
  62
      9
100
AcDbVertex
100
AcDb2dVertex
  10
-3.49599
  20
-4.746
  30
0.0
   0
VERTEX
   5
4A7
100
AcDbEntity
   8
LAYER0
   6
CONTINUOUS
  62
      9
100
AcDbVertex
100
AcDb2dVertex
  10
-3.55849
  20
-4.63775
  30
0.0
   0
VERTEX
   5
4A8
100
AcDbEntity
   8
LAYER0
   6
CONTINUOUS
  62
      9
100
AcDbVertex
100
AcDb2dVertex
  10
-3.62099
  20
-3.85426
  30
0.0
   0
VERTEX
   5
4A9
100
AcDbEntity
   8
LAYER0
   6
CONTINUOUS
  62
      9
100
AcDbVertex
100
AcDb2dVertex
  10
-3.55849
  20
-3.74601
  30
0.0
   0
SEQEND
   5
4AA
100
AcDbEntity
   8
LAYER0
   6
CONTINUOUS
   0
POLYLINE
   5
4AB
100
AcDbEntity
   8
LAYER0
   6
CONTINUOUS
  62
      9
100
AcDb2dPolyline
  66
      1
  10
0.0
  20
0.0
  30
0.0
  70
      1
  75
      5
   0
VERTEX
   5
4AC
100
AcDbEntity
   8
LAYER0
   6
CONTINUOUS
  62
      9
100
AcDbVertex
100
AcDb2dVertex
  10
-3.62099
  20
-3.85426
  30
0.0
   0
VERTEX
   5
4AD
100
AcDbEntity
   8
LAYER0
   6
CONTINUOUS
  62
      9
100
AcDbVertex
100
AcDb2dVertex
  10
-3.68349
  20
-3.74601
  30
0.0
   0
VERTEX
   5
4AE
100
AcDbEntity
   8
LAYER0
   6
CONTINUOUS
  62
      9
100
AcDbVertex
100
AcDb2dVertex
  10
-3.62099
  20
-4.74601
  30
0.0
   0
VERTEX
   5
4AF
100
AcDbEntity
   8
LAYER0
   6
CONTINUOUS
  62
      9
100
AcDbVertex
100
AcDb2dVertex
  10
-3.55849
  20
-4.63776
  30
0.0
   0
SEQEND
   5
4B0
100
AcDbEntity
   8
LAYER0
   6
CONTINUOUS
   0
POLYLINE
   5
4B1
100
AcDbEntity
   8
LAYER0
   6
CONTINUOUS
  62
      9
100
AcDb2dPolyline
  66
      1
  10
0.0
  20
0.0
  30
0.0
  70
      1
  75
      5
   0
VERTEX
   5
4B2
100
AcDbEntity
   8
LAYER0
   6
CONTINUOUS
  62
      9
100
AcDbVertex
100
AcDb2dVertex
  10
-3.62099
  20
-4.74601
  30
0.0
   0
VERTEX
   5
4B3
100
AcDbEntity
   8
LAYER0
   6
CONTINUOUS
  62
      9
100
AcDbVertex
100
AcDb2dVertex
  10
-3.68349
  20
-4.63776
  30
0.0
   0
VERTEX
   5
4B4
100
AcDbEntity
   8
LAYER0
   6
CONTINUOUS
  62
      9
100
AcDbVertex
100
AcDb2dVertex
  10
-3.74599
  20
-3.85427
  30
0.0
   0
VERTEX
   5
4B5
100
AcDbEntity
   8
LAYER0
   6
CONTINUOUS
  62
      9
100
AcDbVertex
100
AcDb2dVertex
  10
-3.68349
  20
-3.74602
  30
0.0
   0
SEQEND
   5
4B6
100
AcDbEntity
   8
LAYER0
   6
CONTINUOUS
   0
POLYLINE
   5
4B7
100
AcDbEntity
   8
LAYER0
   6
CONTINUOUS
  62
      9
100
AcDb2dPolyline
  66
      1
  10
0.0
  20
0.0
  30
0.0
  70
      1
  75
      5
   0
VERTEX
   5
4B8
100
AcDbEntity
   8
LAYER0
   6
CONTINUOUS
  62
      9
100
AcDbVertex
100
AcDb2dVertex
  10
-3.74599
  20
-3.85427
  30
0.0
   0
VERTEX
   5
4B9
100
AcDbEntity
   8
LAYER0
   6
CONTINUOUS
  62
      9
100
AcDbVertex
100
AcDb2dVertex
  10
-3.80849
  20
-3.74602
  30
0.0
   0
VERTEX
   5
4BA
100
AcDbEntity
   8
LAYER0
   6
CONTINUOUS
  62
      9
100
AcDbVertex
100
AcDb2dVertex
  10
-3.74599
  20
-4.74602
  30
0.0
   0
VERTEX
   5
4BB
100
AcDbEntity
   8
LAYER0
   6
CONTINUOUS
  62
      9
100
AcDbVertex
100
AcDb2dVertex
  10
-3.68349
  20
-4.63777
  30
0.0
   0
SEQEND
   5
4BC
100
AcDbEntity
   8
LAYER0
   6
CONTINUOUS
   0
POLYLINE
   5
4BD
100
AcDbEntity
   8
LAYER0
   6
CONTINUOUS
  62
      9
100
AcDb2dPolyline
  66
      1
  10
0.0
  20
0.0
  30
0.0
  70
      1
  75
      5
   0
VERTEX
   5
4BE
100
AcDbEntity
   8
LAYER0
   6
CONTINUOUS
  62
      9
100
AcDbVertex
100
AcDb2dVertex
  10
-3.74599
  20
-4.74602
  30
0.0
   0
VERTEX
   5
4BF
100
AcDbEntity
   8
LAYER0
   6
CONTINUOUS
  62
      9
100
AcDbVertex
100
AcDb2dVertex
  10
-3.80849
  20
-4.63777
  30
0.0
   0
VERTEX
   5
4C0
100
AcDbEntity
   8
LAYER0
   6
CONTINUOUS
  62
      9
100
AcDbVertex
100
AcDb2dVertex
  10
-3.87099
  20
-3.85428
  30
0.0
   0
VERTEX
   5
4C1
100
AcDbEntity
   8
LAYER0
   6
CONTINUOUS
  62
      9
100
AcDbVertex
100
AcDb2dVertex
  10
-3.80849
  20
-3.74603
  30
0.0
   0
SEQEND
   5
4C2
100
AcDbEntity
   8
LAYER0
   6
CONTINUOUS
   0
POLYLINE
   5
4C3
100
AcDbEntity
   8
LAYER0
   6
CONTINUOUS
  62
      9
100
AcDb2dPolyline
  66
      1
  10
0.0
  20
0.0
  30
0.0
  70
      1
  75
      5
   0
VERTEX
   5
4C4
100
AcDbEntity
   8
LAYER0
   6
CONTINUOUS
  62
      9
100
AcDbVertex
100
AcDb2dVertex
  10
-3.87099
  20
-3.85428
  30
0.0
   0
VERTEX
   5
4C5
100
AcDbEntity
   8
LAYER0
   6
CONTINUOUS
  62
      9
100
AcDbVertex
100
AcDb2dVertex
  10
-3.93349
  20
-3.74603
  30
0.0
   0
VERTEX
   5
4C6
100
AcDbEntity
   8
LAYER0
   6
CONTINUOUS
  62
      9
100
AcDbVertex
100
AcDb2dVertex
  10
-3.87099
  20
-4.74603
  30
0.0
   0
VERTEX
   5
4C7
100
AcDbEntity
   8
LAYER0
   6
CONTINUOUS
  62
      9
100
AcDbVertex
100
AcDb2dVertex
  10
-3.80849
  20
-4.63778
  30
0.0
   0
SEQEND
   5
4C8
100
AcDbEntity
   8
LAYER0
   6
CONTINUOUS
   0
POLYLINE
   5
4C9
100
AcDbEntity
   8
LAYER0
   6
CONTINUOUS
  62
      9
100
AcDb2dPolyline
  66
      1
  10
0.0
  20
0.0
  30
0.0
  70
      1
  75
      5
   0
VERTEX
   5
4CA
100
AcDbEntity
   8
LAYER0
   6
CONTINUOUS
  62
      9
100
AcDbVertex
100
AcDb2dVertex
  10
-3.87099
  20
-4.74603
  30
0.0
   0
VERTEX
   5
4CB
100
AcDbEntity
   8
LAYER0
   6
CONTINUOUS
  62
      9
100
AcDbVertex
100
AcDb2dVertex
  10
-3.93349
  20
-4.63778
  30
0.0
   0
VERTEX
   5
4CC
100
AcDbEntity
   8
LAYER0
   6
CONTINUOUS
  62
      9
100
AcDbVertex
100
AcDb2dVertex
  10
-3.99599
  20
-3.85429
  30
0.0
   0
VERTEX
   5
4CD
100
AcDbEntity
   8
LAYER0
   6
CONTINUOUS
  62
      9
100
AcDbVertex
100
AcDb2dVertex
  10
-3.93349
  20
-3.74604
  30
0.0
   0
SEQEND
   5
4CE
100
AcDbEntity
   8
LAYER0
   6
CONTINUOUS
   0
POLYLINE
   5
4CF
100
AcDbEntity
   8
LAYER0
   6
CONTINUOUS
  62
      9
100
AcDb2dPolyline
  66
      1
  10
0.0
  20
0.0
  30
0.0
  70
      1
  75
      5
   0
VERTEX
   5
4D0
100
AcDbEntity
   8
LAYER0
   6
CONTINUOUS
  62
      9
100
AcDbVertex
100
AcDb2dVertex
  10
-3.99599
  20
-3.85429
  30
0.0
   0
VERTEX
   5
4D1
100
AcDbEntity
   8
LAYER0
   6
CONTINUOUS
  62
      9
100
AcDbVertex
100
AcDb2dVertex
  10
-4.05849
  20
-3.74604
  30
0.0
   0
VERTEX
   5
4D2
100
AcDbEntity
   8
LAYER0
   6
CONTINUOUS
  62
      9
100
AcDbVertex
100
AcDb2dVertex
  10
-3.99599
  20
-4.74604
  30
0.0
   0
VERTEX
   5
4D3
100
AcDbEntity
   8
LAYER0
   6
CONTINUOUS
  62
      9
100
AcDbVertex
100
AcDb2dVertex
  10
-3.93349
  20
-4.63779
  30
0.0
   0
SEQEND
   5
4D4
100
AcDbEntity
   8
LAYER0
   6
CONTINUOUS
   0
POLYLINE
   5
4D5
100
AcDbEntity
   8
LAYER0
   6
CONTINUOUS
  62
      9
100
AcDb2dPolyline
  66
      1
  10
0.0
  20
0.0
  30
0.0
  70
      1
  75
      5
   0
VERTEX
   5
4D6
100
AcDbEntity
   8
LAYER0
   6
CONTINUOUS
  62
      9
100
AcDbVertex
100
AcDb2dVertex
  10
-3.99599
  20
-4.74604
  30
0.0
   0
VERTEX
   5
4D7
100
AcDbEntity
   8
LAYER0
   6
CONTINUOUS
  62
      9
100
AcDbVertex
100
AcDb2dVertex
  10
-4.05849
  20
-4.63779
  30
0.0
   0
VERTEX
   5
4D8
100
AcDbEntity
   8
LAYER0
   6
CONTINUOUS
  62
      9
100
AcDbVertex
100
AcDb2dVertex
  10
-4.12099
  20
-3.8543
  30
0.0
   0
VERTEX
   5
4D9
100
AcDbEntity
   8
LAYER0
   6
CONTINUOUS
  62
      9
100
AcDbVertex
100
AcDb2dVertex
  10
-4.05849
  20
-3.74605
  30
0.0
   0
SEQEND
   5
4DA
100
AcDbEntity
   8
LAYER0
   6
CONTINUOUS
   0
POLYLINE
   5
4DB
100
AcDbEntity
   8
LAYER0
   6
CONTINUOUS
  62
      9
100
AcDb2dPolyline
  66
      1
  10
0.0
  20
0.0
  30
0.0
  70
      1
  75
      5
   0
VERTEX
   5
4DC
100
AcDbEntity
   8
LAYER0
   6
CONTINUOUS
  62
      9
100
AcDbVertex
100
AcDb2dVertex
  10
-4.12099
  20
-3.8543
  30
0.0
   0
VERTEX
   5
4DD
100
AcDbEntity
   8
LAYER0
   6
CONTINUOUS
  62
      9
100
AcDbVertex
100
AcDb2dVertex
  10
-4.18349
  20
-3.74605
  30
0.0
   0
VERTEX
   5
4DE
100
AcDbEntity
   8
LAYER0
   6
CONTINUOUS
  62
      9
100
AcDbVertex
100
AcDb2dVertex
  10
-4.12099
  20
-4.74605
  30
0.0
   0
VERTEX
   5
4DF
100
AcDbEntity
   8
LAYER0
   6
CONTINUOUS
  62
      9
100
AcDbVertex
100
AcDb2dVertex
  10
-4.05849
  20
-4.6378
  30
0.0
   0
SEQEND
   5
4E0
100
AcDbEntity
   8
LAYER0
   6
CONTINUOUS
   0
POLYLINE
   5
4E1
100
AcDbEntity
   8
LAYER0
   6
CONTINUOUS
  62
      9
100
AcDb2dPolyline
  66
      1
  10
0.0
  20
0.0
  30
0.0
  70
      1
  75
      5
   0
VERTEX
   5
4E2
100
AcDbEntity
   8
LAYER0
   6
CONTINUOUS
  62
      9
100
AcDbVertex
100
AcDb2dVertex
  10
-4.12099
  20
-4.74605
  30
0.0
   0
VERTEX
   5
4E3
100
AcDbEntity
   8
LAYER0
   6
CONTINUOUS
  62
      9
100
AcDbVertex
100
AcDb2dVertex
  10
-4.18349
  20
-4.6378
  30
0.0
   0
VERTEX
   5
4E4
100
AcDbEntity
   8
LAYER0
   6
CONTINUOUS
  62
      9
100
AcDbVertex
100
AcDb2dVertex
  10
-4.24599
  20
-3.85431
  30
0.0
   0
VERTEX
   5
4E5
100
AcDbEntity
   8
LAYER0
   6
CONTINUOUS
  62
      9
100
AcDbVertex
100
AcDb2dVertex
  10
-4.18349
  20
-3.74606
  30
0.0
   0
SEQEND
   5
4E6
100
AcDbEntity
   8
LAYER0
   6
CONTINUOUS
   0
POLYLINE
   5
4E7
100
AcDbEntity
   8
LAYER0
   6
CONTINUOUS
  62
      9
100
AcDb2dPolyline
  66
      1
  10
0.0
  20
0.0
  30
0.0
  70
      1
  75
      5
   0
VERTEX
   5
4E8
100
AcDbEntity
   8
LAYER0
   6
CONTINUOUS
  62
      9
100
AcDbVertex
100
AcDb2dVertex
  10
-4.24599
  20
-3.85431
  30
0.0
   0
VERTEX
   5
4E9
100
AcDbEntity
   8
LAYER0
   6
CONTINUOUS
  62
      9
100
AcDbVertex
100
AcDb2dVertex
  10
-4.30849
  20
-3.74606
  30
0.0
   0
VERTEX
   5
4EA
100
AcDbEntity
   8
LAYER0
   6
CONTINUOUS
  62
      9
100
AcDbVertex
100
AcDb2dVertex
  10
-4.24599
  20
-4.74606
  30
0.0
   0
VERTEX
   5
4EB
100
AcDbEntity
   8
LAYER0
   6
CONTINUOUS
  62
      9
100
AcDbVertex
100
AcDb2dVertex
  10
-4.18349
  20
-4.63781
  30
0.0
   0
SEQEND
   5
4EC
100
AcDbEntity
   8
LAYER0
   6
CONTINUOUS
   0
POLYLINE
   5
4ED
100
AcDbEntity
   8
LAYER0
   6
CONTINUOUS
  62
      9
100
AcDb2dPolyline
  66
      1
  10
0.0
  20
0.0
  30
0.0
  70
      1
  75
      5
   0
VERTEX
   5
4EE
100
AcDbEntity
   8
LAYER0
   6
CONTINUOUS
  62
      9
100
AcDbVertex
100
AcDb2dVertex
  10
-4.24599
  20
-4.74606
  30
0.0
   0
VERTEX
   5
4EF
100
AcDbEntity
   8
LAYER0
   6
CONTINUOUS
  62
      9
100
AcDbVertex
100
AcDb2dVertex
  10
-4.30849
  20
-4.63781
  30
0.0
   0
VERTEX
   5
4F0
100
AcDbEntity
   8
LAYER0
   6
CONTINUOUS
  62
      9
100
AcDbVertex
100
AcDb2dVertex
  10
-4.37099
  20
-3.85432
  30
0.0
   0
VERTEX
   5
4F1
100
AcDbEntity
   8
LAYER0
   6
CONTINUOUS
  62
      9
100
AcDbVertex
100
AcDb2dVertex
  10
-4.30849
  20
-3.74607
  30
0.0
   0
SEQEND
   5
4F2
100
AcDbEntity
   8
LAYER0
   6
CONTINUOUS
   0
POLYLINE
   5
4F3
100
AcDbEntity
   8
LAYER0
   6
CONTINUOUS
  62
      9
100
AcDb2dPolyline
  66
      1
  10
0.0
  20
0.0
  30
0.0
  70
      1
  75
      5
   0
VERTEX
   5
4F4
100
AcDbEntity
   8
LAYER0
   6
CONTINUOUS
  62
      9
100
AcDbVertex
100
AcDb2dVertex
  10
-4.37099
  20
-3.85432
  30
0.0
   0
VERTEX
   5
4F5
100
AcDbEntity
   8
LAYER0
   6
CONTINUOUS
  62
      9
100
AcDbVertex
100
AcDb2dVertex
  10
-4.43349
  20
-3.74607
  30
0.0
   0
VERTEX
   5
4F6
100
AcDbEntity
   8
LAYER0
   6
CONTINUOUS
  62
      9
100
AcDbVertex
100
AcDb2dVertex
  10
-4.37099
  20
-4.74607
  30
0.0
   0
VERTEX
   5
4F7
100
AcDbEntity
   8
LAYER0
   6
CONTINUOUS
  62
      9
100
AcDbVertex
100
AcDb2dVertex
  10
-4.30849
  20
-4.63782
  30
0.0
   0
SEQEND
   5
4F8
100
AcDbEntity
   8
LAYER0
   6
CONTINUOUS
   0
POLYLINE
   5
4F9
100
AcDbEntity
   8
LAYER0
   6
CONTINUOUS
  62
      9
100
AcDb2dPolyline
  66
      1
  10
0.0
  20
0.0
  30
0.0
  70
      1
  75
      5
   0
VERTEX
   5
4FA
100
AcDbEntity
   8
LAYER0
   6
CONTINUOUS
  62
      9
100
AcDbVertex
100
AcDb2dVertex
  10
-4.37099
  20
-4.74607
  30
0.0
   0
VERTEX
   5
4FB
100
AcDbEntity
   8
LAYER0
   6
CONTINUOUS
  62
      9
100
AcDbVertex
100
AcDb2dVertex
  10
-4.43349
  20
-4.63782
  30
0.0
   0
VERTEX
   5
4FC
100
AcDbEntity
   8
LAYER0
   6
CONTINUOUS
  62
      9
100
AcDbVertex
100
AcDb2dVertex
  10
-4.49599
  20
-3.85433
  30
0.0
   0
VERTEX
   5
4FD
100
AcDbEntity
   8
LAYER0
   6
CONTINUOUS
  62
      9
100
AcDbVertex
100
AcDb2dVertex
  10
-4.43349
  20
-3.74608
  30
0.0
   0
SEQEND
   5
4FE
100
AcDbEntity
   8
LAYER0
   6
CONTINUOUS
   0
POLYLINE
   5
4FF
100
AcDbEntity
   8
LAYER0
   6
CONTINUOUS
  62
      9
100
AcDb2dPolyline
  66
      1
  10
0.0
  20
0.0
  30
0.0
  70
      1
  75
      5
   0
VERTEX
   5
500
100
AcDbEntity
   8
LAYER0
   6
CONTINUOUS
  62
      9
100
AcDbVertex
100
AcDb2dVertex
  10
-4.49599
  20
-3.85433
  30
0.0
   0
VERTEX
   5
501
100
AcDbEntity
   8
LAYER0
   6
CONTINUOUS
  62
      9
100
AcDbVertex
100
AcDb2dVertex
  10
-4.55849
  20
-3.74608
  30
0.0
   0
VERTEX
   5
502
100
AcDbEntity
   8
LAYER0
   6
CONTINUOUS
  62
      9
100
AcDbVertex
100
AcDb2dVertex
  10
-4.49599
  20
-4.74608
  30
0.0
   0
VERTEX
   5
503
100
AcDbEntity
   8
LAYER0
   6
CONTINUOUS
  62
      9
100
AcDbVertex
100
AcDb2dVertex
  10
-4.43349
  20
-4.63783
  30
0.0
   0
SEQEND
   5
504
100
AcDbEntity
   8
LAYER0
   6
CONTINUOUS
   0
POLYLINE
   5
505
100
AcDbEntity
   8
LAYER0
   6
CONTINUOUS
  62
      9
100
AcDb2dPolyline
  66
      1
  10
0.0
  20
0.0
  30
0.0
  70
      1
  75
      5
   0
VERTEX
   5
506
100
AcDbEntity
   8
LAYER0
   6
CONTINUOUS
  62
      9
100
AcDbVertex
100
AcDb2dVertex
  10
-4.49599
  20
-4.74608
  30
0.0
   0
VERTEX
   5
507
100
AcDbEntity
   8
LAYER0
   6
CONTINUOUS
  62
      9
100
AcDbVertex
100
AcDb2dVertex
  10
-4.55849
  20
-4.63783
  30
0.0
   0
VERTEX
   5
508
100
AcDbEntity
   8
LAYER0
   6
CONTINUOUS
  62
      9
100
AcDbVertex
100
AcDb2dVertex
  10
-4.62099
  20
-3.85434
  30
0.0
   0
VERTEX
   5
509
100
AcDbEntity
   8
LAYER0
   6
CONTINUOUS
  62
      9
100
AcDbVertex
100
AcDb2dVertex
  10
-4.55849
  20
-3.74609
  30
0.0
   0
SEQEND
   5
50A
100
AcDbEntity
   8
LAYER0
   6
CONTINUOUS
   0
POLYLINE
   5
50B
100
AcDbEntity
   8
LAYER0
   6
CONTINUOUS
  62
      9
100
AcDb2dPolyline
  66
      1
  10
0.0
  20
0.0
  30
0.0
  70
      1
  75
      5
   0
VERTEX
   5
50C
100
AcDbEntity
   8
LAYER0
   6
CONTINUOUS
  62
      9
100
AcDbVertex
100
AcDb2dVertex
  10
-4.62099
  20
-3.85434
  30
0.0
   0
VERTEX
   5
50D
100
AcDbEntity
   8
LAYER0
   6
CONTINUOUS
  62
      9
100
AcDbVertex
100
AcDb2dVertex
  10
-4.68349
  20
-3.74609
  30
0.0
   0
VERTEX
   5
50E
100
AcDbEntity
   8
LAYER0
   6
CONTINUOUS
  62
      9
100
AcDbVertex
100
AcDb2dVertex
  10
-4.62099
  20
-4.74609
  30
0.0
   0
VERTEX
   5
50F
100
AcDbEntity
   8
LAYER0
   6
CONTINUOUS
  62
      9
100
AcDbVertex
100
AcDb2dVertex
  10
-4.55849
  20
-4.63784
  30
0.0
   0
SEQEND
   5
510
100
AcDbEntity
   8
LAYER0
   6
CONTINUOUS
   0
POLYLINE
   5
511
100
AcDbEntity
   8
LAYER0
   6
CONTINUOUS
  62
      9
100
AcDb2dPolyline
  66
      1
  10
0.0
  20
0.0
  30
0.0
  70
      1
  75
      5
   0
VERTEX
   5
512
100
AcDbEntity
   8
LAYER0
   6
CONTINUOUS
  62
      9
100
AcDbVertex
100
AcDb2dVertex
  10
-4.62099
  20
-4.74609
  30
0.0
   0
VERTEX
   5
513
100
AcDbEntity
   8
LAYER0
   6
CONTINUOUS
  62
      9
100
AcDbVertex
100
AcDb2dVertex
  10
-4.68349
  20
-4.63784
  30
0.0
   0
VERTEX
   5
514
100
AcDbEntity
   8
LAYER0
   6
CONTINUOUS
  62
      9
100
AcDbVertex
100
AcDb2dVertex
  10
-4.74599
  20
-3.85435
  30
0.0
   0
VERTEX
   5
515
100
AcDbEntity
   8
LAYER0
   6
CONTINUOUS
  62
      9
100
AcDbVertex
100
AcDb2dVertex
  10
-4.68349
  20
-3.7461
  30
0.0
   0
SEQEND
   5
516
100
AcDbEntity
   8
LAYER0
   6
CONTINUOUS
   0
POLYLINE
   5
517
100
AcDbEntity
   8
LAYER0
   6
CONTINUOUS
  62
      9
100
AcDb2dPolyline
  66
      1
  10
0.0
  20
0.0
  30
0.0
  70
      1
  75
      5
   0
VERTEX
   5
518
100
AcDbEntity
   8
LAYER0
   6
CONTINUOUS
  62
      9
100
AcDbVertex
100
AcDb2dVertex
  10
-4.74599
  20
-3.85435
  30
0.0
   0
VERTEX
   5
519
100
AcDbEntity
   8
LAYER0
   6
CONTINUOUS
  62
      9
100
AcDbVertex
100
AcDb2dVertex
  10
-4.80849
  20
-3.7461
  30
0.0
   0
VERTEX
   5
51A
100
AcDbEntity
   8
LAYER0
   6
CONTINUOUS
  62
      9
100
AcDbVertex
100
AcDb2dVertex
  10
-4.74599
  20
-4.7461
  30
0.0
   0
VERTEX
   5
51B
100
AcDbEntity
   8
LAYER0
   6
CONTINUOUS
  62
      9
100
AcDbVertex
100
AcDb2dVertex
  10
-4.68349
  20
-4.63785
  30
0.0
   0
SEQEND
   5
51C
100
AcDbEntity
   8
LAYER0
   6
CONTINUOUS
   0
POLYLINE
   5
51D
100
AcDbEntity
   8
LAYER0
   6
CONTINUOUS
  62
      9
100
AcDb2dPolyline
  66
      1
  10
0.0
  20
0.0
  30
0.0
  70
      1
  75
      5
   0
VERTEX
   5
51E
100
AcDbEntity
   8
LAYER0
   6
CONTINUOUS
  62
      9
100
AcDbVertex
100
AcDb2dVertex
  10
-4.74599
  20
-4.7461
  30
0.0
   0
VERTEX
   5
51F
100
AcDbEntity
   8
LAYER0
   6
CONTINUOUS
  62
      9
100
AcDbVertex
100
AcDb2dVertex
  10
-4.80849
  20
-4.63785
  30
0.0
   0
VERTEX
   5
520
100
AcDbEntity
   8
LAYER0
   6
CONTINUOUS
  62
      9
100
AcDbVertex
100
AcDb2dVertex
  10
-4.87099
  20
-3.85436
  30
0.0
   0
VERTEX
   5
521
100
AcDbEntity
   8
LAYER0
   6
CONTINUOUS
  62
      9
100
AcDbVertex
100
AcDb2dVertex
  10
-4.80849
  20
-3.74611
  30
0.0
   0
SEQEND
   5
522
100
AcDbEntity
   8
LAYER0
   6
CONTINUOUS
   0
POLYLINE
   5
523
100
AcDbEntity
   8
LAYER0
   6
CONTINUOUS
  62
      9
100
AcDb2dPolyline
  66
      1
  10
0.0
  20
0.0
  30
0.0
  70
      1
  75
      5
   0
VERTEX
   5
524
100
AcDbEntity
   8
LAYER0
   6
CONTINUOUS
  62
      9
100
AcDbVertex
100
AcDb2dVertex
  10
-4.87099
  20
-3.85436
  30
0.0
   0
VERTEX
   5
525
100
AcDbEntity
   8
LAYER0
   6
CONTINUOUS
  62
      9
100
AcDbVertex
100
AcDb2dVertex
  10
-4.93349
  20
-3.74611
  30
0.0
   0
VERTEX
   5
526
100
AcDbEntity
   8
LAYER0
   6
CONTINUOUS
  62
      9
100
AcDbVertex
100
AcDb2dVertex
  10
-4.87099
  20
-4.74611
  30
0.0
   0
VERTEX
   5
527
100
AcDbEntity
   8
LAYER0
   6
CONTINUOUS
  62
      9
100
AcDbVertex
100
AcDb2dVertex
  10
-4.80849
  20
-4.63786
  30
0.0
   0
SEQEND
   5
528
100
AcDbEntity
   8
LAYER0
   6
CONTINUOUS
   0
POLYLINE
   5
529
100
AcDbEntity
   8
LAYER0
   6
CONTINUOUS
  62
      9
100
AcDb2dPolyline
  66
      1
  10
0.0
  20
0.0
  30
0.0
  70
      1
  75
      5
   0
VERTEX
   5
52A
100
AcDbEntity
   8
LAYER0
   6
CONTINUOUS
  62
      9
100
AcDbVertex
100
AcDb2dVertex
  10
-4.87099
  20
-4.74611
  30
0.0
   0
VERTEX
   5
52B
100
AcDbEntity
   8
LAYER0
   6
CONTINUOUS
  62
      9
100
AcDbVertex
100
AcDb2dVertex
  10
-4.93349
  20
-4.63786
  30
0.0
   0
VERTEX
   5
52C
100
AcDbEntity
   8
LAYER0
   6
CONTINUOUS
  62
      9
100
AcDbVertex
100
AcDb2dVertex
  10
-4.99599
  20
-3.85437
  30
0.0
   0
VERTEX
   5
52D
100
AcDbEntity
   8
LAYER0
   6
CONTINUOUS
  62
      9
100
AcDbVertex
100
AcDb2dVertex
  10
-4.93349
  20
-3.74612
  30
0.0
   0
SEQEND
   5
52E
100
AcDbEntity
   8
LAYER0
   6
CONTINUOUS
   0
POLYLINE
   5
52F
100
AcDbEntity
   8
LAYER0
   6
CONTINUOUS
  62
      9
100
AcDb2dPolyline
  66
      1
  10
0.0
  20
0.0
  30
0.0
  70
      1
  75
      5
   0
VERTEX
   5
530
100
AcDbEntity
   8
LAYER0
   6
CONTINUOUS
  62
      9
100
AcDbVertex
100
AcDb2dVertex
  10
-4.99599
  20
-3.85437
  30
0.0
   0
VERTEX
   5
531
100
AcDbEntity
   8
LAYER0
   6
CONTINUOUS
  62
      9
100
AcDbVertex
100
AcDb2dVertex
  10
-5.05849
  20
-3.74612
  30
0.0
   0
VERTEX
   5
532
100
AcDbEntity
   8
LAYER0
   6
CONTINUOUS
  62
      9
100
AcDbVertex
100
AcDb2dVertex
  10
-4.99599
  20
-4.74612
  30
0.0
   0
VERTEX
   5
533
100
AcDbEntity
   8
LAYER0
   6
CONTINUOUS
  62
      9
100
AcDbVertex
100
AcDb2dVertex
  10
-4.93349
  20
-4.63787
  30
0.0
   0
SEQEND
   5
534
100
AcDbEntity
   8
LAYER0
   6
CONTINUOUS
   0
POLYLINE
   5
535
100
AcDbEntity
   8
LAYER0
   6
CONTINUOUS
  62
      9
100
AcDb2dPolyline
  66
      1
  10
0.0
  20
0.0
  30
0.0
  70
      1
  75
      5
   0
VERTEX
   5
536
100
AcDbEntity
   8
LAYER0
   6
CONTINUOUS
  62
      9
100
AcDbVertex
100
AcDb2dVertex
  10
-4.99599
  20
-4.74612
  30
0.0
   0
VERTEX
   5
537
100
AcDbEntity
   8
LAYER0
   6
CONTINUOUS
  62
      9
100
AcDbVertex
100
AcDb2dVertex
  10
-5.05849
  20
-4.63787
  30
0.0
   0
VERTEX
   5
538
100
AcDbEntity
   8
LAYER0
   6
CONTINUOUS
  62
      9
100
AcDbVertex
100
AcDb2dVertex
  10
-5.12099
  20
-3.85438
  30
0.0
   0
VERTEX
   5
539
100
AcDbEntity
   8
LAYER0
   6
CONTINUOUS
  62
      9
100
AcDbVertex
100
AcDb2dVertex
  10
-5.05849
  20
-3.74613
  30
0.0
   0
SEQEND
   5
53A
100
AcDbEntity
   8
LAYER0
   6
CONTINUOUS
   0
POLYLINE
   5
53B
100
AcDbEntity
   8
LAYER0
   6
CONTINUOUS
  62
      9
100
AcDb2dPolyline
  66
      1
  10
0.0
  20
0.0
  30
0.0
  70
      1
  75
      5
   0
VERTEX
   5
53C
100
AcDbEntity
   8
LAYER0
   6
CONTINUOUS
  62
      9
100
AcDbVertex
100
AcDb2dVertex
  10
-5.12099
  20
-3.85438
  30
0.0
   0
VERTEX
   5
53D
100
AcDbEntity
   8
LAYER0
   6
CONTINUOUS
  62
      9
100
AcDbVertex
100
AcDb2dVertex
  10
-5.18349
  20
-3.74613
  30
0.0
   0
VERTEX
   5
53E
100
AcDbEntity
   8
LAYER0
   6
CONTINUOUS
  62
      9
100
AcDbVertex
100
AcDb2dVertex
  10
-5.12099
  20
-4.74613
  30
0.0
   0
VERTEX
   5
53F
100
AcDbEntity
   8
LAYER0
   6
CONTINUOUS
  62
      9
100
AcDbVertex
100
AcDb2dVertex
  10
-5.05849
  20
-4.63788
  30
0.0
   0
SEQEND
   5
540
100
AcDbEntity
   8
LAYER0
   6
CONTINUOUS
   0
POLYLINE
   5
541
100
AcDbEntity
   8
LAYER0
   6
CONTINUOUS
  62
      9
100
AcDb2dPolyline
  66
      1
  10
0.0
  20
0.0
  30
0.0
  70
      1
  75
      5
   0
VERTEX
   5
542
100
AcDbEntity
   8
LAYER0
   6
CONTINUOUS
  62
      9
100
AcDbVertex
100
AcDb2dVertex
  10
-5.12099
  20
-4.74613
  30
0.0
   0
VERTEX
   5
543
100
AcDbEntity
   8
LAYER0
   6
CONTINUOUS
  62
      9
100
AcDbVertex
100
AcDb2dVertex
  10
-5.18349
  20
-4.63788
  30
0.0
   0
VERTEX
   5
544
100
AcDbEntity
   8
LAYER0
   6
CONTINUOUS
  62
      9
100
AcDbVertex
100
AcDb2dVertex
  10
-5.24599
  20
-3.85439
  30
0.0
   0
VERTEX
   5
545
100
AcDbEntity
   8
LAYER0
   6
CONTINUOUS
  62
      9
100
AcDbVertex
100
AcDb2dVertex
  10
-5.18349
  20
-3.74614
  30
0.0
   0
SEQEND
   5
546
100
AcDbEntity
   8
LAYER0
   6
CONTINUOUS
   0
POLYLINE
   5
547
100
AcDbEntity
   8
LAYER0
   6
CONTINUOUS
  62
      9
100
AcDb2dPolyline
  66
      1
  10
0.0
  20
0.0
  30
0.0
  70
      1
  75
      5
   0
VERTEX
   5
548
100
AcDbEntity
   8
LAYER0
   6
CONTINUOUS
  62
      9
100
AcDbVertex
100
AcDb2dVertex
  10
-5.24599
  20
-3.85439
  30
0.0
   0
VERTEX
   5
549
100
AcDbEntity
   8
LAYER0
   6
CONTINUOUS
  62
      9
100
AcDbVertex
100
AcDb2dVertex
  10
-5.30849
  20
-3.74614
  30
0.0
   0
VERTEX
   5
54A
100
AcDbEntity
   8
LAYER0
   6
CONTINUOUS
  62
      9
100
AcDbVertex
100
AcDb2dVertex
  10
-5.24599
  20
-4.74614
  30
0.0
   0
VERTEX
   5
54B
100
AcDbEntity
   8
LAYER0
   6
CONTINUOUS
  62
      9
100
AcDbVertex
100
AcDb2dVertex
  10
-5.18349
  20
-4.63789
  30
0.0
   0
SEQEND
   5
54C
100
AcDbEntity
   8
LAYER0
   6
CONTINUOUS
   0
POLYLINE
   5
54D
100
AcDbEntity
   8
LAYER0
   6
CONTINUOUS
  62
      9
100
AcDb2dPolyline
  66
      1
  10
0.0
  20
0.0
  30
0.0
  70
      1
  75
      5
   0
VERTEX
   5
54E
100
AcDbEntity
   8
LAYER0
   6
CONTINUOUS
  62
      9
100
AcDbVertex
100
AcDb2dVertex
  10
-5.24599
  20
-4.74614
  30
0.0
   0
VERTEX
   5
54F
100
AcDbEntity
   8
LAYER0
   6
CONTINUOUS
  62
      9
100
AcDbVertex
100
AcDb2dVertex
  10
-5.30849
  20
-4.63789
  30
0.0
   0
VERTEX
   5
550
100
AcDbEntity
   8
LAYER0
   6
CONTINUOUS
  62
      9
100
AcDbVertex
100
AcDb2dVertex
  10
-5.37099
  20
-3.8544
  30
0.0
   0
VERTEX
   5
551
100
AcDbEntity
   8
LAYER0
   6
CONTINUOUS
  62
      9
100
AcDbVertex
100
AcDb2dVertex
  10
-5.30849
  20
-3.74615
  30
0.0
   0
SEQEND
   5
552
100
AcDbEntity
   8
LAYER0
   6
CONTINUOUS
   0
POLYLINE
   5
553
100
AcDbEntity
   8
LAYER0
   6
CONTINUOUS
  62
      9
100
AcDb2dPolyline
  66
      1
  10
0.0
  20
0.0
  30
0.0
  70
      1
  75
      5
   0
VERTEX
   5
554
100
AcDbEntity
   8
LAYER0
   6
CONTINUOUS
  62
      9
100
AcDbVertex
100
AcDb2dVertex
  10
-5.37099
  20
-3.8544
  30
0.0
   0
VERTEX
   5
555
100
AcDbEntity
   8
LAYER0
   6
CONTINUOUS
  62
      9
100
AcDbVertex
100
AcDb2dVertex
  10
-5.43349
  20
-3.74615
  30
0.0
   0
VERTEX
   5
556
100
AcDbEntity
   8
LAYER0
   6
CONTINUOUS
  62
      9
100
AcDbVertex
100
AcDb2dVertex
  10
-5.37099
  20
-4.74615
  30
0.0
   0
VERTEX
   5
557
100
AcDbEntity
   8
LAYER0
   6
CONTINUOUS
  62
      9
100
AcDbVertex
100
AcDb2dVertex
  10
-5.30849
  20
-4.6379
  30
0.0
   0
SEQEND
   5
558
100
AcDbEntity
   8
LAYER0
   6
CONTINUOUS
   0
POLYLINE
   5
559
100
AcDbEntity
   8
LAYER0
   6
CONTINUOUS
  62
      9
100
AcDb2dPolyline
  66
      1
  10
0.0
  20
0.0
  30
0.0
  70
      1
  75
      5
   0
VERTEX
   5
55A
100
AcDbEntity
   8
LAYER0
   6
CONTINUOUS
  62
      9
100
AcDbVertex
100
AcDb2dVertex
  10
-5.37099
  20
-4.74615
  30
0.0
   0
VERTEX
   5
55B
100
AcDbEntity
   8
LAYER0
   6
CONTINUOUS
  62
      9
100
AcDbVertex
100
AcDb2dVertex
  10
-5.43349
  20
-4.6379
  30
0.0
   0
VERTEX
   5
55C
100
AcDbEntity
   8
LAYER0
   6
CONTINUOUS
  62
      9
100
AcDbVertex
100
AcDb2dVertex
  10
-5.49599
  20
-3.85441
  30
0.0
   0
VERTEX
   5
55D
100
AcDbEntity
   8
LAYER0
   6
CONTINUOUS
  62
      9
100
AcDbVertex
100
AcDb2dVertex
  10
-5.43349
  20
-3.74616
  30
0.0
   0
SEQEND
   5
55E
100
AcDbEntity
   8
LAYER0
   6
CONTINUOUS
   0
POLYLINE
   5
55F
100
AcDbEntity
   8
LAYER0
   6
CONTINUOUS
  62
      9
100
AcDb2dPolyline
  66
      1
  10
0.0
  20
0.0
  30
0.0
  70
      1
  75
      5
   0
VERTEX
   5
560
100
AcDbEntity
   8
LAYER0
   6
CONTINUOUS
  62
      9
100
AcDbVertex
100
AcDb2dVertex
  10
-5.49599
  20
-3.85441
  30
0.0
   0
VERTEX
   5
561
100
AcDbEntity
   8
LAYER0
   6
CONTINUOUS
  62
      9
100
AcDbVertex
100
AcDb2dVertex
  10
-5.55849
  20
-3.74616
  30
0.0
   0
VERTEX
   5
562
100
AcDbEntity
   8
LAYER0
   6
CONTINUOUS
  62
      9
100
AcDbVertex
100
AcDb2dVertex
  10
-5.49599
  20
-4.74616
  30
0.0
   0
VERTEX
   5
563
100
AcDbEntity
   8
LAYER0
   6
CONTINUOUS
  62
      9
100
AcDbVertex
100
AcDb2dVertex
  10
-5.43349
  20
-4.63791
  30
0.0
   0
SEQEND
   5
564
100
AcDbEntity
   8
LAYER0
   6
CONTINUOUS
   0
POLYLINE
   5
565
100
AcDbEntity
   8
LAYER0
   6
CONTINUOUS
  62
      9
100
AcDb2dPolyline
  66
      1
  10
0.0
  20
0.0
  30
0.0
  70
      1
  75
      5
   0
VERTEX
   5
566
100
AcDbEntity
   8
LAYER0
   6
CONTINUOUS
  62
      9
100
AcDbVertex
100
AcDb2dVertex
  10
-5.49599
  20
-4.74616
  30
0.0
   0
VERTEX
   5
567
100
AcDbEntity
   8
LAYER0
   6
CONTINUOUS
  62
      9
100
AcDbVertex
100
AcDb2dVertex
  10
-5.55849
  20
-4.63791
  30
0.0
   0
VERTEX
   5
568
100
AcDbEntity
   8
LAYER0
   6
CONTINUOUS
  62
      9
100
AcDbVertex
100
AcDb2dVertex
  10
-5.62099
  20
-3.85442
  30
0.0
   0
VERTEX
   5
569
100
AcDbEntity
   8
LAYER0
   6
CONTINUOUS
  62
      9
100
AcDbVertex
100
AcDb2dVertex
  10
-5.55849
  20
-3.74617
  30
0.0
   0
SEQEND
   5
56A
100
AcDbEntity
   8
LAYER0
   6
CONTINUOUS
   0
POLYLINE
   5
56B
100
AcDbEntity
   8
LAYER0
   6
CONTINUOUS
  62
      9
100
AcDb2dPolyline
  66
      1
  10
0.0
  20
0.0
  30
0.0
  70
      1
  75
      5
   0
VERTEX
   5
56C
100
AcDbEntity
   8
LAYER0
   6
CONTINUOUS
  62
      9
100
AcDbVertex
100
AcDb2dVertex
  10
-5.62099
  20
-3.85442
  30
0.0
   0
VERTEX
   5
56D
100
AcDbEntity
   8
LAYER0
   6
CONTINUOUS
  62
      9
100
AcDbVertex
100
AcDb2dVertex
  10
-5.68349
  20
-3.74617
  30
0.0
   0
VERTEX
   5
56E
100
AcDbEntity
   8
LAYER0
   6
CONTINUOUS
  62
      9
100
AcDbVertex
100
AcDb2dVertex
  10
-5.62099
  20
-4.74617
  30
0.0
   0
VERTEX
   5
56F
100
AcDbEntity
   8
LAYER0
   6
CONTINUOUS
  62
      9
100
AcDbVertex
100
AcDb2dVertex
  10
-5.55849
  20
-4.63792
  30
0.0
   0
SEQEND
   5
570
100
AcDbEntity
   8
LAYER0
   6
CONTINUOUS
   0
POLYLINE
   5
571
100
AcDbEntity
   8
LAYER0
   6
CONTINUOUS
  62
      9
100
AcDb2dPolyline
  66
      1
  10
0.0
  20
0.0
  30
0.0
  70
      1
  75
      5
   0
VERTEX
   5
572
100
AcDbEntity
   8
LAYER0
   6
CONTINUOUS
  62
      9
100
AcDbVertex
100
AcDb2dVertex
  10
-5.62099
  20
-4.74617
  30
0.0
   0
VERTEX
   5
573
100
AcDbEntity
   8
LAYER0
   6
CONTINUOUS
  62
      9
100
AcDbVertex
100
AcDb2dVertex
  10
-5.68349
  20
-4.63792
  30
0.0
   0
VERTEX
   5
574
100
AcDbEntity
   8
LAYER0
   6
CONTINUOUS
  62
      9
100
AcDbVertex
100
AcDb2dVertex
  10
-5.74599
  20
-3.85443
  30
0.0
   0
VERTEX
   5
575
100
AcDbEntity
   8
LAYER0
   6
CONTINUOUS
  62
      9
100
AcDbVertex
100
AcDb2dVertex
  10
-5.68349
  20
-3.74618
  30
0.0
   0
SEQEND
   5
576
100
AcDbEntity
   8
LAYER0
   6
CONTINUOUS
   0
POLYLINE
   5
577
100
AcDbEntity
   8
LAYER0
   6
CONTINUOUS
  62
      9
100
AcDb2dPolyline
  66
      1
  10
0.0
  20
0.0
  30
0.0
  70
      1
  75
      5
   0
VERTEX
   5
578
100
AcDbEntity
   8
LAYER0
   6
CONTINUOUS
  62
      9
100
AcDbVertex
100
AcDb2dVertex
  10
-5.74599
  20
-3.85443
  30
0.0
   0
VERTEX
   5
579
100
AcDbEntity
   8
LAYER0
   6
CONTINUOUS
  62
      9
100
AcDbVertex
100
AcDb2dVertex
  10
-5.80849
  20
-3.74618
  30
0.0
   0
VERTEX
   5
57A
100
AcDbEntity
   8
LAYER0
   6
CONTINUOUS
  62
      9
100
AcDbVertex
100
AcDb2dVertex
  10
-5.74599
  20
-4.74618
  30
0.0
   0
VERTEX
   5
57B
100
AcDbEntity
   8
LAYER0
   6
CONTINUOUS
  62
      9
100
AcDbVertex
100
AcDb2dVertex
  10
-5.68349
  20
-4.63793
  30
0.0
   0
SEQEND
   5
57C
100
AcDbEntity
   8
LAYER0
   6
CONTINUOUS
   0
POLYLINE
   5
57D
100
AcDbEntity
   8
LAYER0
   6
CONTINUOUS
  62
      9
100
AcDb2dPolyline
  66
      1
  10
0.0
  20
0.0
  30
0.0
  70
      1
  75
      5
   0
VERTEX
   5
57E
100
AcDbEntity
   8
LAYER0
   6
CONTINUOUS
  62
      9
100
AcDbVertex
100
AcDb2dVertex
  10
-5.74599
  20
-4.74618
  30
0.0
   0
VERTEX
   5
57F
100
AcDbEntity
   8
LAYER0
   6
CONTINUOUS
  62
      9
100
AcDbVertex
100
AcDb2dVertex
  10
-5.80849
  20
-4.63793
  30
0.0
   0
VERTEX
   5
580
100
AcDbEntity
   8
LAYER0
   6
CONTINUOUS
  62
      9
100
AcDbVertex
100
AcDb2dVertex
  10
-5.87099
  20
-3.85444
  30
0.0
   0
VERTEX
   5
581
100
AcDbEntity
   8
LAYER0
   6
CONTINUOUS
  62
      9
100
AcDbVertex
100
AcDb2dVertex
  10
-5.80849
  20
-3.74619
  30
0.0
   0
SEQEND
   5
582
100
AcDbEntity
   8
LAYER0
   6
CONTINUOUS
   0
POLYLINE
   5
583
100
AcDbEntity
   8
LAYER0
   6
CONTINUOUS
  62
      9
100
AcDb2dPolyline
  66
      1
  10
0.0
  20
0.0
  30
0.0
  70
      1
  75
      5
   0
VERTEX
   5
584
100
AcDbEntity
   8
LAYER0
   6
CONTINUOUS
  62
      9
100
AcDbVertex
100
AcDb2dVertex
  10
-5.87099
  20
-3.85444
  30
0.0
   0
VERTEX
   5
585
100
AcDbEntity
   8
LAYER0
   6
CONTINUOUS
  62
      9
100
AcDbVertex
100
AcDb2dVertex
  10
-5.93349
  20
-3.74619
  30
0.0
   0
VERTEX
   5
586
100
AcDbEntity
   8
LAYER0
   6
CONTINUOUS
  62
      9
100
AcDbVertex
100
AcDb2dVertex
  10
-5.87099
  20
-4.74619
  30
0.0
   0
VERTEX
   5
587
100
AcDbEntity
   8
LAYER0
   6
CONTINUOUS
  62
      9
100
AcDbVertex
100
AcDb2dVertex
  10
-5.80849
  20
-4.63794
  30
0.0
   0
SEQEND
   5
588
100
AcDbEntity
   8
LAYER0
   6
CONTINUOUS
   0
POLYLINE
   5
589
100
AcDbEntity
   8
LAYER0
   6
CONTINUOUS
  62
      9
100
AcDb2dPolyline
  66
      1
  10
0.0
  20
0.0
  30
0.0
  70
      1
  75
      5
   0
VERTEX
   5
58A
100
AcDbEntity
   8
LAYER0
   6
CONTINUOUS
  62
      9
100
AcDbVertex
100
AcDb2dVertex
  10
-5.87099
  20
-4.74619
  30
0.0
   0
VERTEX
   5
58B
100
AcDbEntity
   8
LAYER0
   6
CONTINUOUS
  62
      9
100
AcDbVertex
100
AcDb2dVertex
  10
-5.93349
  20
-4.63794
  30
0.0
   0
VERTEX
   5
58C
100
AcDbEntity
   8
LAYER0
   6
CONTINUOUS
  62
      9
100
AcDbVertex
100
AcDb2dVertex
  10
-5.99599
  20
-3.85445
  30
0.0
   0
VERTEX
   5
58D
100
AcDbEntity
   8
LAYER0
   6
CONTINUOUS
  62
      9
100
AcDbVertex
100
AcDb2dVertex
  10
-5.93349
  20
-3.7462
  30
0.0
   0
SEQEND
   5
58E
100
AcDbEntity
   8
LAYER0
   6
CONTINUOUS
   0
POLYLINE
   5
58F
100
AcDbEntity
   8
LAYER0
   6
CONTINUOUS
  62
      9
100
AcDb2dPolyline
  66
      1
  10
0.0
  20
0.0
  30
0.0
  70
      1
  75
      5
   0
VERTEX
   5
590
100
AcDbEntity
   8
LAYER0
   6
CONTINUOUS
  62
      9
100
AcDbVertex
100
AcDb2dVertex
  10
-5.99599
  20
-3.85445
  30
0.0
   0
VERTEX
   5
591
100
AcDbEntity
   8
LAYER0
   6
CONTINUOUS
  62
      9
100
AcDbVertex
100
AcDb2dVertex
  10
-6.05849
  20
-3.7462
  30
0.0
   0
VERTEX
   5
592
100
AcDbEntity
   8
LAYER0
   6
CONTINUOUS
  62
      9
100
AcDbVertex
100
AcDb2dVertex
  10
-5.99599
  20
-4.7462
  30
0.0
   0
VERTEX
   5
593
100
AcDbEntity
   8
LAYER0
   6
CONTINUOUS
  62
      9
100
AcDbVertex
100
AcDb2dVertex
  10
-5.93349
  20
-4.63795
  30
0.0
   0
SEQEND
   5
594
100
AcDbEntity
   8
LAYER0
   6
CONTINUOUS
   0
POLYLINE
   5
595
100
AcDbEntity
   8
LAYER0
   6
CONTINUOUS
  62
      9
100
AcDb2dPolyline
  66
      1
  10
0.0
  20
0.0
  30
0.0
  70
      1
  75
      5
   0
VERTEX
   5
596
100
AcDbEntity
   8
LAYER0
   6
CONTINUOUS
  62
      9
100
AcDbVertex
100
AcDb2dVertex
  10
-5.99599
  20
-4.7462
  30
0.0
   0
VERTEX
   5
597
100
AcDbEntity
   8
LAYER0
   6
CONTINUOUS
  62
      9
100
AcDbVertex
100
AcDb2dVertex
  10
-6.05849
  20
-4.63795
  30
0.0
   0
VERTEX
   5
598
100
AcDbEntity
   8
LAYER0
   6
CONTINUOUS
  62
      9
100
AcDbVertex
100
AcDb2dVertex
  10
-6.12099
  20
-3.85446
  30
0.0
   0
VERTEX
   5
599
100
AcDbEntity
   8
LAYER0
   6
CONTINUOUS
  62
      9
100
AcDbVertex
100
AcDb2dVertex
  10
-6.05849
  20
-3.74621
  30
0.0
   0
SEQEND
   5
59A
100
AcDbEntity
   8
LAYER0
   6
CONTINUOUS
   0
POLYLINE
   5
59B
100
AcDbEntity
   8
LAYER0
   6
CONTINUOUS
  62
      9
100
AcDb2dPolyline
  66
      1
  10
0.0
  20
0.0
  30
0.0
  70
      1
  75
      5
   0
VERTEX
   5
59C
100
AcDbEntity
   8
LAYER0
   6
CONTINUOUS
  62
      9
100
AcDbVertex
100
AcDb2dVertex
  10
-6.12099
  20
-3.85446
  30
0.0
   0
VERTEX
   5
59D
100
AcDbEntity
   8
LAYER0
   6
CONTINUOUS
  62
      9
100
AcDbVertex
100
AcDb2dVertex
  10
-6.18349
  20
-3.74621
  30
0.0
   0
VERTEX
   5
59E
100
AcDbEntity
   8
LAYER0
   6
CONTINUOUS
  62
      9
100
AcDbVertex
100
AcDb2dVertex
  10
-6.12099
  20
-4.74621
  30
0.0
   0
VERTEX
   5
59F
100
AcDbEntity
   8
LAYER0
   6
CONTINUOUS
  62
      9
100
AcDbVertex
100
AcDb2dVertex
  10
-6.05849
  20
-4.63796
  30
0.0
   0
SEQEND
   5
5A0
100
AcDbEntity
   8
LAYER0
   6
CONTINUOUS
   0
POLYLINE
   5
5A1
100
AcDbEntity
   8
LAYER0
   6
CONTINUOUS
  62
      9
100
AcDb2dPolyline
  66
      1
  10
0.0
  20
0.0
  30
0.0
  70
      1
  75
      5
   0
VERTEX
   5
5A2
100
AcDbEntity
   8
LAYER0
   6
CONTINUOUS
  62
      9
100
AcDbVertex
100
AcDb2dVertex
  10
-6.12099
  20
-4.74621
  30
0.0
   0
VERTEX
   5
5A3
100
AcDbEntity
   8
LAYER0
   6
CONTINUOUS
  62
      9
100
AcDbVertex
100
AcDb2dVertex
  10
-6.18349
  20
-4.63796
  30
0.0
   0
VERTEX
   5
5A4
100
AcDbEntity
   8
LAYER0
   6
CONTINUOUS
  62
      9
100
AcDbVertex
100
AcDb2dVertex
  10
-6.24599
  20
-3.85447
  30
0.0
   0
VERTEX
   5
5A5
100
AcDbEntity
   8
LAYER0
   6
CONTINUOUS
  62
      9
100
AcDbVertex
100
AcDb2dVertex
  10
-6.18349
  20
-3.74622
  30
0.0
   0
SEQEND
   5
5A6
100
AcDbEntity
   8
LAYER0
   6
CONTINUOUS
   0
POLYLINE
   5
5A7
100
AcDbEntity
   8
LAYER0
   6
CONTINUOUS
  62
      9
100
AcDb2dPolyline
  66
      1
  10
0.0
  20
0.0
  30
0.0
  70
      1
  75
      5
   0
VERTEX
   5
5A8
100
AcDbEntity
   8
LAYER0
   6
CONTINUOUS
  62
      9
100
AcDbVertex
100
AcDb2dVertex
  10
-6.24599
  20
-3.85447
  30
0.0
   0
VERTEX
   5
5A9
100
AcDbEntity
   8
LAYER0
   6
CONTINUOUS
  62
      9
100
AcDbVertex
100
AcDb2dVertex
  10
-6.30849
  20
-3.74622
  30
0.0
   0
VERTEX
   5
5AA
100
AcDbEntity
   8
LAYER0
   6
CONTINUOUS
  62
      9
100
AcDbVertex
100
AcDb2dVertex
  10
-6.24599
  20
-4.74622
  30
0.0
   0
VERTEX
   5
5AB
100
AcDbEntity
   8
LAYER0
   6
CONTINUOUS
  62
      9
100
AcDbVertex
100
AcDb2dVertex
  10
-6.18349
  20
-4.63797
  30
0.0
   0
SEQEND
   5
5AC
100
AcDbEntity
   8
LAYER0
   6
CONTINUOUS
   0
POLYLINE
   5
5AD
100
AcDbEntity
   8
LAYER0
   6
CONTINUOUS
  62
      9
100
AcDb2dPolyline
  66
      1
  10
0.0
  20
0.0
  30
0.0
  70
      1
  75
      5
   0
VERTEX
   5
5AE
100
AcDbEntity
   8
LAYER0
   6
CONTINUOUS
  62
      9
100
AcDbVertex
100
AcDb2dVertex
  10
-6.24599
  20
-4.74622
  30
0.0
   0
VERTEX
   5
5AF
100
AcDbEntity
   8
LAYER0
   6
CONTINUOUS
  62
      9
100
AcDbVertex
100
AcDb2dVertex
  10
-6.30849
  20
-4.63797
  30
0.0
   0
VERTEX
   5
5B0
100
AcDbEntity
   8
LAYER0
   6
CONTINUOUS
  62
      9
100
AcDbVertex
100
AcDb2dVertex
  10
-6.37099
  20
-3.85448
  30
0.0
   0
VERTEX
   5
5B1
100
AcDbEntity
   8
LAYER0
   6
CONTINUOUS
  62
      9
100
AcDbVertex
100
AcDb2dVertex
  10
-6.30849
  20
-3.74623
  30
0.0
   0
SEQEND
   5
5B2
100
AcDbEntity
   8
LAYER0
   6
CONTINUOUS
   0
POLYLINE
   5
5B3
100
AcDbEntity
   8
LAYER0
   6
CONTINUOUS
  62
      9
100
AcDb2dPolyline
  66
      1
  10
0.0
  20
0.0
  30
0.0
  70
      1
  75
      5
   0
VERTEX
   5
5B4
100
AcDbEntity
   8
LAYER0
   6
CONTINUOUS
  62
      9
100
AcDbVertex
100
AcDb2dVertex
  10
-6.37099
  20
-3.85448
  30
0.0
   0
VERTEX
   5
5B5
100
AcDbEntity
   8
LAYER0
   6
CONTINUOUS
  62
      9
100
AcDbVertex
100
AcDb2dVertex
  10
-6.43349
  20
-3.74623
  30
0.0
   0
VERTEX
   5
5B6
100
AcDbEntity
   8
LAYER0
   6
CONTINUOUS
  62
      9
100
AcDbVertex
100
AcDb2dVertex
  10
-6.37099
  20
-4.74623
  30
0.0
   0
VERTEX
   5
5B7
100
AcDbEntity
   8
LAYER0
   6
CONTINUOUS
  62
      9
100
AcDbVertex
100
AcDb2dVertex
  10
-6.30849
  20
-4.63798
  30
0.0
   0
SEQEND
   5
5B8
100
AcDbEntity
   8
LAYER0
   6
CONTINUOUS
   0
POLYLINE
   5
5B9
100
AcDbEntity
   8
LAYER0
   6
CONTINUOUS
  62
      9
100
AcDb2dPolyline
  66
      1
  10
0.0
  20
0.0
  30
0.0
  70
      1
  75
      5
   0
VERTEX
   5
5BA
100
AcDbEntity
   8
LAYER0
   6
CONTINUOUS
  62
      9
100
AcDbVertex
100
AcDb2dVertex
  10
-6.37099
  20
-4.74623
  30
0.0
   0
VERTEX
   5
5BB
100
AcDbEntity
   8
LAYER0
   6
CONTINUOUS
  62
      9
100
AcDbVertex
100
AcDb2dVertex
  10
-6.43349
  20
-4.63798
  30
0.0
   0
VERTEX
   5
5BC
100
AcDbEntity
   8
LAYER0
   6
CONTINUOUS
  62
      9
100
AcDbVertex
100
AcDb2dVertex
  10
-6.49599
  20
-3.85449
  30
0.0
   0
VERTEX
   5
5BD
100
AcDbEntity
   8
LAYER0
   6
CONTINUOUS
  62
      9
100
AcDbVertex
100
AcDb2dVertex
  10
-6.43349
  20
-3.74624
  30
0.0
   0
SEQEND
   5
5BE
100
AcDbEntity
   8
LAYER0
   6
CONTINUOUS
   0
POLYLINE
   5
5BF
100
AcDbEntity
   8
LAYER0
   6
CONTINUOUS
  62
      9
100
AcDb2dPolyline
  66
      1
  10
0.0
  20
0.0
  30
0.0
  70
      1
  75
      5
   0
VERTEX
   5
5C0
100
AcDbEntity
   8
LAYER0
   6
CONTINUOUS
  62
      9
100
AcDbVertex
100
AcDb2dVertex
  10
-6.49599
  20
-3.85449
  30
0.0
   0
VERTEX
   5
5C1
100
AcDbEntity
   8
LAYER0
   6
CONTINUOUS
  62
      9
100
AcDbVertex
100
AcDb2dVertex
  10
-6.55849
  20
-3.74624
  30
0.0
   0
VERTEX
   5
5C2
100
AcDbEntity
   8
LAYER0
   6
CONTINUOUS
  62
      9
100
AcDbVertex
100
AcDb2dVertex
  10
-6.49599
  20
-4.74624
  30
0.0
   0
VERTEX
   5
5C3
100
AcDbEntity
   8
LAYER0
   6
CONTINUOUS
  62
      9
100
AcDbVertex
100
AcDb2dVertex
  10
-6.43349
  20
-4.63799
  30
0.0
   0
SEQEND
   5
5C4
100
AcDbEntity
   8
LAYER0
   6
CONTINUOUS
   0
POLYLINE
   5
5C5
100
AcDbEntity
   8
LAYER0
   6
CONTINUOUS
  62
      9
100
AcDb2dPolyline
  66
      1
  10
0.0
  20
0.0
  30
0.0
  70
      1
  75
      5
   0
VERTEX
   5
5C6
100
AcDbEntity
   8
LAYER0
   6
CONTINUOUS
  62
      9
100
AcDbVertex
100
AcDb2dVertex
  10
-6.49599
  20
-4.74624
  30
0.0
   0
VERTEX
   5
5C7
100
AcDbEntity
   8
LAYER0
   6
CONTINUOUS
  62
      9
100
AcDbVertex
100
AcDb2dVertex
  10
-6.55849
  20
-4.63799
  30
0.0
   0
VERTEX
   5
5C8
100
AcDbEntity
   8
LAYER0
   6
CONTINUOUS
  62
      9
100
AcDbVertex
100
AcDb2dVertex
  10
-6.62099
  20
-3.8545
  30
0.0
   0
VERTEX
   5
5C9
100
AcDbEntity
   8
LAYER0
   6
CONTINUOUS
  62
      9
100
AcDbVertex
100
AcDb2dVertex
  10
-6.55849
  20
-3.74625
  30
0.0
   0
SEQEND
   5
5CA
100
AcDbEntity
   8
LAYER0
   6
CONTINUOUS
   0
POLYLINE
   5
5CB
100
AcDbEntity
   8
LAYER0
   6
CONTINUOUS
  62
      9
100
AcDb2dPolyline
  66
      1
  10
0.0
  20
0.0
  30
0.0
  70
      1
  75
      5
   0
VERTEX
   5
5CC
100
AcDbEntity
   8
LAYER0
   6
CONTINUOUS
  62
      9
100
AcDbVertex
100
AcDb2dVertex
  10
-6.62099
  20
-3.8545
  30
0.0
   0
VERTEX
   5
5CD
100
AcDbEntity
   8
LAYER0
   6
CONTINUOUS
  62
      9
100
AcDbVertex
100
AcDb2dVertex
  10
-6.68349
  20
-3.74625
  30
0.0
   0
VERTEX
   5
5CE
100
AcDbEntity
   8
LAYER0
   6
CONTINUOUS
  62
      9
100
AcDbVertex
100
AcDb2dVertex
  10
-6.62099
  20
-4.74625
  30
0.0
   0
VERTEX
   5
5CF
100
AcDbEntity
   8
LAYER0
   6
CONTINUOUS
  62
      9
100
AcDbVertex
100
AcDb2dVertex
  10
-6.55849
  20
-4.638
  30
0.0
   0
SEQEND
   5
5D0
100
AcDbEntity
   8
LAYER0
   6
CONTINUOUS
   0
POLYLINE
   5
5D1
100
AcDbEntity
   8
LAYER0
   6
CONTINUOUS
  62
      9
100
AcDb2dPolyline
  66
      1
  10
0.0
  20
0.0
  30
0.0
  70
      1
  75
      5
   0
VERTEX
   5
5D2
100
AcDbEntity
   8
LAYER0
   6
CONTINUOUS
  62
      9
100
AcDbVertex
100
AcDb2dVertex
  10
-6.62099
  20
-4.74625
  30
0.0
   0
VERTEX
   5
5D3
100
AcDbEntity
   8
LAYER0
   6
CONTINUOUS
  62
      9
100
AcDbVertex
100
AcDb2dVertex
  10
-6.68349
  20
-4.638
  30
0.0
   0
VERTEX
   5
5D4
100
AcDbEntity
   8
LAYER0
   6
CONTINUOUS
  62
      9
100
AcDbVertex
100
AcDb2dVertex
  10
-6.74599
  20
-3.85451
  30
0.0
   0
VERTEX
   5
5D5
100
AcDbEntity
   8
LAYER0
   6
CONTINUOUS
  62
      9
100
AcDbVertex
100
AcDb2dVertex
  10
-6.68349
  20
-3.74626
  30
0.0
   0
SEQEND
   5
5D6
100
AcDbEntity
   8
LAYER0
   6
CONTINUOUS
   0
POLYLINE
   5
5D7
100
AcDbEntity
   8
LAYER0
   6
CONTINUOUS
  62
      9
100
AcDb2dPolyline
  66
      1
  10
0.0
  20
0.0
  30
0.0
  70
      1
  75
      5
   0
VERTEX
   5
5D8
100
AcDbEntity
   8
LAYER0
   6
CONTINUOUS
  62
      9
100
AcDbVertex
100
AcDb2dVertex
  10
-6.74599
  20
-3.85451
  30
0.0
   0
VERTEX
   5
5D9
100
AcDbEntity
   8
LAYER0
   6
CONTINUOUS
  62
      9
100
AcDbVertex
100
AcDb2dVertex
  10
-6.80849
  20
-3.74626
  30
0.0
   0
VERTEX
   5
5DA
100
AcDbEntity
   8
LAYER0
   6
CONTINUOUS
  62
      9
100
AcDbVertex
100
AcDb2dVertex
  10
-6.74599
  20
-4.74626
  30
0.0
   0
VERTEX
   5
5DB
100
AcDbEntity
   8
LAYER0
   6
CONTINUOUS
  62
      9
100
AcDbVertex
100
AcDb2dVertex
  10
-6.68349
  20
-4.63801
  30
0.0
   0
SEQEND
   5
5DC
100
AcDbEntity
   8
LAYER0
   6
CONTINUOUS
   0
POLYLINE
   5
5DD
100
AcDbEntity
   8
LAYER0
   6
CONTINUOUS
  62
      9
100
AcDb2dPolyline
  66
      1
  10
0.0
  20
0.0
  30
0.0
  70
      1
  75
      5
   0
VERTEX
   5
5DE
100
AcDbEntity
   8
LAYER0
   6
CONTINUOUS
  62
      9
100
AcDbVertex
100
AcDb2dVertex
  10
-6.74599
  20
-4.74626
  30
0.0
   0
VERTEX
   5
5DF
100
AcDbEntity
   8
LAYER0
   6
CONTINUOUS
  62
      9
100
AcDbVertex
100
AcDb2dVertex
  10
-6.80849
  20
-4.63801
  30
0.0
   0
VERTEX
   5
5E0
100
AcDbEntity
   8
LAYER0
   6
CONTINUOUS
  62
      9
100
AcDbVertex
100
AcDb2dVertex
  10
-6.87099
  20
-3.85452
  30
0.0
   0
VERTEX
   5
5E1
100
AcDbEntity
   8
LAYER0
   6
CONTINUOUS
  62
      9
100
AcDbVertex
100
AcDb2dVertex
  10
-6.80849
  20
-3.74627
  30
0.0
   0
SEQEND
   5
5E2
100
AcDbEntity
   8
LAYER0
   6
CONTINUOUS
   0
POLYLINE
   5
5E3
100
AcDbEntity
   8
LAYER0
   6
CONTINUOUS
  62
      9
100
AcDb2dPolyline
  66
      1
  10
0.0
  20
0.0
  30
0.0
  70
      1
  75
      5
   0
VERTEX
   5
5E4
100
AcDbEntity
   8
LAYER0
   6
CONTINUOUS
  62
      9
100
AcDbVertex
100
AcDb2dVertex
  10
-6.87099
  20
-3.85452
  30
0.0
   0
VERTEX
   5
5E5
100
AcDbEntity
   8
LAYER0
   6
CONTINUOUS
  62
      9
100
AcDbVertex
100
AcDb2dVertex
  10
-6.93349
  20
-3.74627
  30
0.0
   0
VERTEX
   5
5E6
100
AcDbEntity
   8
LAYER0
   6
CONTINUOUS
  62
      9
100
AcDbVertex
100
AcDb2dVertex
  10
-6.87099
  20
-4.74627
  30
0.0
   0
VERTEX
   5
5E7
100
AcDbEntity
   8
LAYER0
   6
CONTINUOUS
  62
      9
100
AcDbVertex
100
AcDb2dVertex
  10
-6.80849
  20
-4.63802
  30
0.0
   0
SEQEND
   5
5E8
100
AcDbEntity
   8
LAYER0
   6
CONTINUOUS
   0
POLYLINE
   5
5E9
100
AcDbEntity
   8
LAYER0
   6
CONTINUOUS
  62
      9
100
AcDb2dPolyline
  66
      1
  10
0.0
  20
0.0
  30
0.0
  70
      1
  75
      5
   0
VERTEX
   5
5EA
100
AcDbEntity
   8
LAYER0
   6
CONTINUOUS
  62
      9
100
AcDbVertex
100
AcDb2dVertex
  10
-6.87099
  20
-4.74627
  30
0.0
   0
VERTEX
   5
5EB
100
AcDbEntity
   8
LAYER0
   6
CONTINUOUS
  62
      9
100
AcDbVertex
100
AcDb2dVertex
  10
-6.93349
  20
-4.63802
  30
0.0
   0
VERTEX
   5
5EC
100
AcDbEntity
   8
LAYER0
   6
CONTINUOUS
  62
      9
100
AcDbVertex
100
AcDb2dVertex
  10
-6.99599
  20
-3.85453
  30
0.0
   0
VERTEX
   5
5ED
100
AcDbEntity
   8
LAYER0
   6
CONTINUOUS
  62
      9
100
AcDbVertex
100
AcDb2dVertex
  10
-6.93349
  20
-3.74628
  30
0.0
   0
SEQEND
   5
5EE
100
AcDbEntity
   8
LAYER0
   6
CONTINUOUS
   0
POLYLINE
   5
5EF
100
AcDbEntity
   8
LAYER0
   6
CONTINUOUS
  62
      9
100
AcDb2dPolyline
  66
      1
  10
0.0
  20
0.0
  30
0.0
  70
      1
  75
      5
   0
VERTEX
   5
5F0
100
AcDbEntity
   8
LAYER0
   6
CONTINUOUS
  62
      9
100
AcDbVertex
100
AcDb2dVertex
  10
-6.99599
  20
-3.85453
  30
0.0
   0
VERTEX
   5
5F1
100
AcDbEntity
   8
LAYER0
   6
CONTINUOUS
  62
      9
100
AcDbVertex
100
AcDb2dVertex
  10
-7.05849
  20
-3.74628
  30
0.0
   0
VERTEX
   5
5F2
100
AcDbEntity
   8
LAYER0
   6
CONTINUOUS
  62
      9
100
AcDbVertex
100
AcDb2dVertex
  10
-6.99599
  20
-4.74628
  30
0.0
   0
VERTEX
   5
5F3
100
AcDbEntity
   8
LAYER0
   6
CONTINUOUS
  62
      9
100
AcDbVertex
100
AcDb2dVertex
  10
-6.93349
  20
-4.63803
  30
0.0
   0
SEQEND
   5
5F4
100
AcDbEntity
   8
LAYER0
   6
CONTINUOUS
   0
POLYLINE
   5
5F5
100
AcDbEntity
   8
LAYER0
   6
CONTINUOUS
  62
      9
100
AcDb2dPolyline
  66
      1
  10
0.0
  20
0.0
  30
0.0
  70
      1
  75
      5
   0
VERTEX
   5
5F6
100
AcDbEntity
   8
LAYER0
   6
CONTINUOUS
  62
      9
100
AcDbVertex
100
AcDb2dVertex
  10
-6.99599
  20
-4.74628
  30
0.0
   0
VERTEX
   5
5F7
100
AcDbEntity
   8
LAYER0
   6
CONTINUOUS
  62
      9
100
AcDbVertex
100
AcDb2dVertex
  10
-7.05849
  20
-4.63803
  30
0.0
   0
VERTEX
   5
5F8
100
AcDbEntity
   8
LAYER0
   6
CONTINUOUS
  62
      9
100
AcDbVertex
100
AcDb2dVertex
  10
-7.12099
  20
-3.85454
  30
0.0
   0
VERTEX
   5
5F9
100
AcDbEntity
   8
LAYER0
   6
CONTINUOUS
  62
      9
100
AcDbVertex
100
AcDb2dVertex
  10
-7.05849
  20
-3.74629
  30
0.0
   0
SEQEND
   5
5FA
100
AcDbEntity
   8
LAYER0
   6
CONTINUOUS
   0
POLYLINE
   5
5FB
100
AcDbEntity
   8
LAYER0
   6
CONTINUOUS
  62
      9
100
AcDb2dPolyline
  66
      1
  10
0.0
  20
0.0
  30
0.0
  70
      1
  75
      5
   0
VERTEX
   5
5FC
100
AcDbEntity
   8
LAYER0
   6
CONTINUOUS
  62
      9
100
AcDbVertex
100
AcDb2dVertex
  10
-7.12099
  20
-3.85454
  30
0.0
   0
VERTEX
   5
5FD
100
AcDbEntity
   8
LAYER0
   6
CONTINUOUS
  62
      9
100
AcDbVertex
100
AcDb2dVertex
  10
-7.18349
  20
-3.74629
  30
0.0
   0
VERTEX
   5
5FE
100
AcDbEntity
   8
LAYER0
   6
CONTINUOUS
  62
      9
100
AcDbVertex
100
AcDb2dVertex
  10
-7.12099
  20
-4.74629
  30
0.0
   0
VERTEX
   5
5FF
100
AcDbEntity
   8
LAYER0
   6
CONTINUOUS
  62
      9
100
AcDbVertex
100
AcDb2dVertex
  10
-7.05849
  20
-4.63804
  30
0.0
   0
SEQEND
   5
600
100
AcDbEntity
   8
LAYER0
   6
CONTINUOUS
   0
POLYLINE
   5
601
100
AcDbEntity
   8
LAYER0
   6
CONTINUOUS
  62
      9
100
AcDb2dPolyline
  66
      1
  10
0.0
  20
0.0
  30
0.0
  70
      1
  75
      5
   0
VERTEX
   5
602
100
AcDbEntity
   8
LAYER0
   6
CONTINUOUS
  62
      9
100
AcDbVertex
100
AcDb2dVertex
  10
-7.12099
  20
-4.74629
  30
0.0
   0
VERTEX
   5
603
100
AcDbEntity
   8
LAYER0
   6
CONTINUOUS
  62
      9
100
AcDbVertex
100
AcDb2dVertex
  10
-7.18349
  20
-4.63804
  30
0.0
   0
VERTEX
   5
604
100
AcDbEntity
   8
LAYER0
   6
CONTINUOUS
  62
      9
100
AcDbVertex
100
AcDb2dVertex
  10
-7.24599
  20
-3.85455
  30
0.0
   0
VERTEX
   5
605
100
AcDbEntity
   8
LAYER0
   6
CONTINUOUS
  62
      9
100
AcDbVertex
100
AcDb2dVertex
  10
-7.18349
  20
-3.7463
  30
0.0
   0
SEQEND
   5
606
100
AcDbEntity
   8
LAYER0
   6
CONTINUOUS
   0
POLYLINE
   5
607
100
AcDbEntity
   8
LAYER0
   6
CONTINUOUS
  62
      9
100
AcDb2dPolyline
  66
      1
  10
0.0
  20
0.0
  30
0.0
  70
      1
  75
      5
   0
VERTEX
   5
608
100
AcDbEntity
   8
LAYER0
   6
CONTINUOUS
  62
      9
100
AcDbVertex
100
AcDb2dVertex
  10
-7.24599
  20
-3.85455
  30
0.0
   0
VERTEX
   5
609
100
AcDbEntity
   8
LAYER0
   6
CONTINUOUS
  62
      9
100
AcDbVertex
100
AcDb2dVertex
  10
-7.30849
  20
-3.7463
  30
0.0
   0
VERTEX
   5
60A
100
AcDbEntity
   8
LAYER0
   6
CONTINUOUS
  62
      9
100
AcDbVertex
100
AcDb2dVertex
  10
-7.24599
  20
-4.7463
  30
0.0
   0
VERTEX
   5
60B
100
AcDbEntity
   8
LAYER0
   6
CONTINUOUS
  62
      9
100
AcDbVertex
100
AcDb2dVertex
  10
-7.18349
  20
-4.63805
  30
0.0
   0
SEQEND
   5
60C
100
AcDbEntity
   8
LAYER0
   6
CONTINUOUS
   0
POLYLINE
   5
60D
100
AcDbEntity
   8
LAYER0
   6
CONTINUOUS
  62
      9
100
AcDb2dPolyline
  66
      1
  10
0.0
  20
0.0
  30
0.0
  70
      1
  75
      5
   0
VERTEX
   5
60E
100
AcDbEntity
   8
LAYER0
   6
CONTINUOUS
  62
      9
100
AcDbVertex
100
AcDb2dVertex
  10
-7.24599
  20
-4.7463
  30
0.0
   0
VERTEX
   5
60F
100
AcDbEntity
   8
LAYER0
   6
CONTINUOUS
  62
      9
100
AcDbVertex
100
AcDb2dVertex
  10
-7.30849
  20
-4.63805
  30
0.0
   0
VERTEX
   5
610
100
AcDbEntity
   8
LAYER0
   6
CONTINUOUS
  62
      9
100
AcDbVertex
100
AcDb2dVertex
  10
-7.37099
  20
-3.85456
  30
0.0
   0
VERTEX
   5
611
100
AcDbEntity
   8
LAYER0
   6
CONTINUOUS
  62
      9
100
AcDbVertex
100
AcDb2dVertex
  10
-7.30849
  20
-3.74631
  30
0.0
   0
SEQEND
   5
612
100
AcDbEntity
   8
LAYER0
   6
CONTINUOUS
   0
POLYLINE
   5
613
100
AcDbEntity
   8
LAYER0
   6
CONTINUOUS
  62
      9
100
AcDb2dPolyline
  66
      1
  10
0.0
  20
0.0
  30
0.0
  70
      1
  75
      5
   0
VERTEX
   5
614
100
AcDbEntity
   8
LAYER0
   6
CONTINUOUS
  62
      9
100
AcDbVertex
100
AcDb2dVertex
  10
-7.37099
  20
-3.85456
  30
0.0
   0
VERTEX
   5
615
100
AcDbEntity
   8
LAYER0
   6
CONTINUOUS
  62
      9
100
AcDbVertex
100
AcDb2dVertex
  10
-7.43349
  20
-3.74631
  30
0.0
   0
VERTEX
   5
616
100
AcDbEntity
   8
LAYER0
   6
CONTINUOUS
  62
      9
100
AcDbVertex
100
AcDb2dVertex
  10
-7.37099
  20
-4.74631
  30
0.0
   0
VERTEX
   5
617
100
AcDbEntity
   8
LAYER0
   6
CONTINUOUS
  62
      9
100
AcDbVertex
100
AcDb2dVertex
  10
-7.30849
  20
-4.63806
  30
0.0
   0
SEQEND
   5
618
100
AcDbEntity
   8
LAYER0
   6
CONTINUOUS
   0
POLYLINE
   5
619
100
AcDbEntity
   8
LAYER0
   6
CONTINUOUS
  62
      9
100
AcDb2dPolyline
  66
      1
  10
0.0
  20
0.0
  30
0.0
  70
      1
  75
      5
   0
VERTEX
   5
61A
100
AcDbEntity
   8
LAYER0
   6
CONTINUOUS
  62
      9
100
AcDbVertex
100
AcDb2dVertex
  10
-7.37099
  20
-4.74631
  30
0.0
   0
VERTEX
   5
61B
100
AcDbEntity
   8
LAYER0
   6
CONTINUOUS
  62
      9
100
AcDbVertex
100
AcDb2dVertex
  10
-7.43349
  20
-4.63806
  30
0.0
   0
VERTEX
   5
61C
100
AcDbEntity
   8
LAYER0
   6
CONTINUOUS
  62
      9
100
AcDbVertex
100
AcDb2dVertex
  10
-7.49599
  20
-3.85457
  30
0.0
   0
VERTEX
   5
61D
100
AcDbEntity
   8
LAYER0
   6
CONTINUOUS
  62
      9
100
AcDbVertex
100
AcDb2dVertex
  10
-7.43349
  20
-3.74632
  30
0.0
   0
SEQEND
   5
61E
100
AcDbEntity
   8
LAYER0
   6
CONTINUOUS
   0
POLYLINE
   5
61F
100
AcDbEntity
   8
LAYER0
   6
CONTINUOUS
  62
      9
100
AcDb2dPolyline
  66
      1
  10
0.0
  20
0.0
  30
0.0
  70
      1
  75
      5
   0
VERTEX
   5
620
100
AcDbEntity
   8
LAYER0
   6
CONTINUOUS
  62
      9
100
AcDbVertex
100
AcDb2dVertex
  10
-7.49599
  20
-3.85457
  30
0.0
   0
VERTEX
   5
621
100
AcDbEntity
   8
LAYER0
   6
CONTINUOUS
  62
      9
100
AcDbVertex
100
AcDb2dVertex
  10
-7.55849
  20
-3.74632
  30
0.0
   0
VERTEX
   5
622
100
AcDbEntity
   8
LAYER0
   6
CONTINUOUS
  62
      9
100
AcDbVertex
100
AcDb2dVertex
  10
-7.49599
  20
-4.74632
  30
0.0
   0
VERTEX
   5
623
100
AcDbEntity
   8
LAYER0
   6
CONTINUOUS
  62
      9
100
AcDbVertex
100
AcDb2dVertex
  10
-7.43349
  20
-4.63807
  30
0.0
   0
SEQEND
   5
624
100
AcDbEntity
   8
LAYER0
   6
CONTINUOUS
   0
POLYLINE
   5
625
100
AcDbEntity
   8
LAYER0
   6
CONTINUOUS
  62
      9
100
AcDb2dPolyline
  66
      1
  10
0.0
  20
0.0
  30
0.0
  70
      1
  75
      5
   0
VERTEX
   5
626
100
AcDbEntity
   8
LAYER0
   6
CONTINUOUS
  62
      9
100
AcDbVertex
100
AcDb2dVertex
  10
-7.49599
  20
-4.74632
  30
0.0
   0
VERTEX
   5
627
100
AcDbEntity
   8
LAYER0
   6
CONTINUOUS
  62
      9
100
AcDbVertex
100
AcDb2dVertex
  10
-7.55849
  20
-4.63807
  30
0.0
   0
VERTEX
   5
628
100
AcDbEntity
   8
LAYER0
   6
CONTINUOUS
  62
      9
100
AcDbVertex
100
AcDb2dVertex
  10
-7.62099
  20
-3.85458
  30
0.0
   0
VERTEX
   5
629
100
AcDbEntity
   8
LAYER0
   6
CONTINUOUS
  62
      9
100
AcDbVertex
100
AcDb2dVertex
  10
-7.55849
  20
-3.74633
  30
0.0
   0
SEQEND
   5
62A
100
AcDbEntity
   8
LAYER0
   6
CONTINUOUS
   0
POLYLINE
   5
62B
100
AcDbEntity
   8
LAYER0
   6
CONTINUOUS
  62
      9
100
AcDb2dPolyline
  66
      1
  10
0.0
  20
0.0
  30
0.0
  70
      1
  75
      5
   0
VERTEX
   5
62C
100
AcDbEntity
   8
LAYER0
   6
CONTINUOUS
  62
      9
100
AcDbVertex
100
AcDb2dVertex
  10
-7.62099
  20
-3.85458
  30
0.0
   0
VERTEX
   5
62D
100
AcDbEntity
   8
LAYER0
   6
CONTINUOUS
  62
      9
100
AcDbVertex
100
AcDb2dVertex
  10
-7.68349
  20
-3.74633
  30
0.0
   0
VERTEX
   5
62E
100
AcDbEntity
   8
LAYER0
   6
CONTINUOUS
  62
      9
100
AcDbVertex
100
AcDb2dVertex
  10
-7.62099
  20
-4.74633
  30
0.0
   0
VERTEX
   5
62F
100
AcDbEntity
   8
LAYER0
   6
CONTINUOUS
  62
      9
100
AcDbVertex
100
AcDb2dVertex
  10
-7.55849
  20
-4.63808
  30
0.0
   0
SEQEND
   5
630
100
AcDbEntity
   8
LAYER0
   6
CONTINUOUS
   0
POLYLINE
   5
631
100
AcDbEntity
   8
LAYER0
   6
CONTINUOUS
  62
      9
100
AcDb2dPolyline
  66
      1
  10
0.0
  20
0.0
  30
0.0
  70
      1
  75
      5
   0
VERTEX
   5
632
100
AcDbEntity
   8
LAYER0
   6
CONTINUOUS
  62
      9
100
AcDbVertex
100
AcDb2dVertex
  10
-7.62099
  20
-4.74633
  30
0.0
   0
VERTEX
   5
633
100
AcDbEntity
   8
LAYER0
   6
CONTINUOUS
  62
      9
100
AcDbVertex
100
AcDb2dVertex
  10
-7.68349
  20
-4.63808
  30
0.0
   0
VERTEX
   5
634
100
AcDbEntity
   8
LAYER0
   6
CONTINUOUS
  62
      9
100
AcDbVertex
100
AcDb2dVertex
  10
-7.74599
  20
-3.85459
  30
0.0
   0
VERTEX
   5
635
100
AcDbEntity
   8
LAYER0
   6
CONTINUOUS
  62
      9
100
AcDbVertex
100
AcDb2dVertex
  10
-7.68349
  20
-3.74634
  30
0.0
   0
SEQEND
   5
636
100
AcDbEntity
   8
LAYER0
   6
CONTINUOUS
   0
POLYLINE
   5
637
100
AcDbEntity
   8
LAYER0
   6
CONTINUOUS
  62
      9
100
AcDb2dPolyline
  66
      1
  10
0.0
  20
0.0
  30
0.0
  70
      1
  75
      5
   0
VERTEX
   5
638
100
AcDbEntity
   8
LAYER0
   6
CONTINUOUS
  62
      9
100
AcDbVertex
100
AcDb2dVertex
  10
-7.74599
  20
-3.85459
  30
0.0
   0
VERTEX
   5
639
100
AcDbEntity
   8
LAYER0
   6
CONTINUOUS
  62
      9
100
AcDbVertex
100
AcDb2dVertex
  10
-7.80849
  20
-3.74634
  30
0.0
   0
VERTEX
   5
63A
100
AcDbEntity
   8
LAYER0
   6
CONTINUOUS
  62
      9
100
AcDbVertex
100
AcDb2dVertex
  10
-7.74599
  20
-4.74634
  30
0.0
   0
VERTEX
   5
63B
100
AcDbEntity
   8
LAYER0
   6
CONTINUOUS
  62
      9
100
AcDbVertex
100
AcDb2dVertex
  10
-7.68349
  20
-4.63809
  30
0.0
   0
SEQEND
   5
63C
100
AcDbEntity
   8
LAYER0
   6
CONTINUOUS
   0
POLYLINE
   5
63D
100
AcDbEntity
   8
LAYER0
   6
CONTINUOUS
  62
      9
100
AcDb2dPolyline
  66
      1
  10
0.0
  20
0.0
  30
0.0
  70
      1
  75
      5
   0
VERTEX
   5
63E
100
AcDbEntity
   8
LAYER0
   6
CONTINUOUS
  62
      9
100
AcDbVertex
100
AcDb2dVertex
  10
-7.74599
  20
-4.74634
  30
0.0
   0
VERTEX
   5
63F
100
AcDbEntity
   8
LAYER0
   6
CONTINUOUS
  62
      9
100
AcDbVertex
100
AcDb2dVertex
  10
-7.80849
  20
-4.63809
  30
0.0
   0
VERTEX
   5
640
100
AcDbEntity
   8
LAYER0
   6
CONTINUOUS
  62
      9
100
AcDbVertex
100
AcDb2dVertex
  10
-7.87099
  20
-3.8546
  30
0.0
   0
VERTEX
   5
641
100
AcDbEntity
   8
LAYER0
   6
CONTINUOUS
  62
      9
100
AcDbVertex
100
AcDb2dVertex
  10
-7.80849
  20
-3.74635
  30
0.0
   0
SEQEND
   5
642
100
AcDbEntity
   8
LAYER0
   6
CONTINUOUS
   0
POLYLINE
   5
643
100
AcDbEntity
   8
LAYER0
   6
CONTINUOUS
  62
      9
100
AcDb2dPolyline
  66
      1
  10
0.0
  20
0.0
  30
0.0
  70
      1
  75
      5
   0
VERTEX
   5
644
100
AcDbEntity
   8
LAYER0
   6
CONTINUOUS
  62
      9
100
AcDbVertex
100
AcDb2dVertex
  10
-7.87099
  20
-3.8546
  30
0.0
   0
VERTEX
   5
645
100
AcDbEntity
   8
LAYER0
   6
CONTINUOUS
  62
      9
100
AcDbVertex
100
AcDb2dVertex
  10
-7.93349
  20
-3.74635
  30
0.0
   0
VERTEX
   5
646
100
AcDbEntity
   8
LAYER0
   6
CONTINUOUS
  62
      9
100
AcDbVertex
100
AcDb2dVertex
  10
-7.87099
  20
-4.74635
  30
0.0
   0
VERTEX
   5
647
100
AcDbEntity
   8
LAYER0
   6
CONTINUOUS
  62
      9
100
AcDbVertex
100
AcDb2dVertex
  10
-7.80849
  20
-4.6381
  30
0.0
   0
SEQEND
   5
648
100
AcDbEntity
   8
LAYER0
   6
CONTINUOUS
   0
POLYLINE
   5
649
100
AcDbEntity
   8
LAYER0
   6
CONTINUOUS
  62
      9
100
AcDb2dPolyline
  66
      1
  10
0.0
  20
0.0
  30
0.0
  70
      1
  75
      5
   0
VERTEX
   5
64A
100
AcDbEntity
   8
LAYER0
   6
CONTINUOUS
  62
      9
100
AcDbVertex
100
AcDb2dVertex
  10
-7.87099
  20
-4.74635
  30
0.0
   0
VERTEX
   5
64B
100
AcDbEntity
   8
LAYER0
   6
CONTINUOUS
  62
      9
100
AcDbVertex
100
AcDb2dVertex
  10
-7.93349
  20
-4.6381
  30
0.0
   0
VERTEX
   5
64C
100
AcDbEntity
   8
LAYER0
   6
CONTINUOUS
  62
      9
100
AcDbVertex
100
AcDb2dVertex
  10
-7.99599
  20
-3.85461
  30
0.0
   0
VERTEX
   5
64D
100
AcDbEntity
   8
LAYER0
   6
CONTINUOUS
  62
      9
100
AcDbVertex
100
AcDb2dVertex
  10
-7.93349
  20
-3.74636
  30
0.0
   0
SEQEND
   5
64E
100
AcDbEntity
   8
LAYER0
   6
CONTINUOUS
   0
POLYLINE
   5
64F
100
AcDbEntity
   8
LAYER0
   6
CONTINUOUS
  62
      9
100
AcDb2dPolyline
  66
      1
  10
0.0
  20
0.0
  30
0.0
  70
      1
  75
      5
   0
VERTEX
   5
650
100
AcDbEntity
   8
LAYER0
   6
CONTINUOUS
  62
      9
100
AcDbVertex
100
AcDb2dVertex
  10
-7.99599
  20
-3.85461
  30
0.0
   0
VERTEX
   5
651
100
AcDbEntity
   8
LAYER0
   6
CONTINUOUS
  62
      9
100
AcDbVertex
100
AcDb2dVertex
  10
-8.05849
  20
-3.74636
  30
0.0
   0
VERTEX
   5
652
100
AcDbEntity
   8
LAYER0
   6
CONTINUOUS
  62
      9
100
AcDbVertex
100
AcDb2dVertex
  10
-7.99599
  20
-4.74636
  30
0.0
   0
VERTEX
   5
653
100
AcDbEntity
   8
LAYER0
   6
CONTINUOUS
  62
      9
100
AcDbVertex
100
AcDb2dVertex
  10
-7.93349
  20
-4.63811
  30
0.0
   0
SEQEND
   5
654
100
AcDbEntity
   8
LAYER0
   6
CONTINUOUS
   0
POLYLINE
   5
655
100
AcDbEntity
   8
LAYER0
   6
CONTINUOUS
  62
      9
100
AcDb2dPolyline
  66
      1
  10
0.0
  20
0.0
  30
0.0
  70
      1
  75
      5
   0
VERTEX
   5
656
100
AcDbEntity
   8
LAYER0
   6
CONTINUOUS
  62
      9
100
AcDbVertex
100
AcDb2dVertex
  10
-7.99599
  20
-4.74636
  30
0.0
   0
VERTEX
   5
657
100
AcDbEntity
   8
LAYER0
   6
CONTINUOUS
  62
      9
100
AcDbVertex
100
AcDb2dVertex
  10
-8.05849
  20
-4.63811
  30
0.0
   0
VERTEX
   5
658
100
AcDbEntity
   8
LAYER0
   6
CONTINUOUS
  62
      9
100
AcDbVertex
100
AcDb2dVertex
  10
-8.12099
  20
-3.85462
  30
0.0
   0
VERTEX
   5
659
100
AcDbEntity
   8
LAYER0
   6
CONTINUOUS
  62
      9
100
AcDbVertex
100
AcDb2dVertex
  10
-8.05849
  20
-3.74637
  30
0.0
   0
SEQEND
   5
65A
100
AcDbEntity
   8
LAYER0
   6
CONTINUOUS
   0
POLYLINE
   5
65B
100
AcDbEntity
   8
LAYER0
   6
CONTINUOUS
  62
      9
100
AcDb2dPolyline
  66
      1
  10
0.0
  20
0.0
  30
0.0
  70
      1
  75
      5
   0
VERTEX
   5
65C
100
AcDbEntity
   8
LAYER0
   6
CONTINUOUS
  62
      9
100
AcDbVertex
100
AcDb2dVertex
  10
-8.12099
  20
-3.85462
  30
0.0
   0
VERTEX
   5
65D
100
AcDbEntity
   8
LAYER0
   6
CONTINUOUS
  62
      9
100
AcDbVertex
100
AcDb2dVertex
  10
-8.18349
  20
-3.74637
  30
0.0
   0
VERTEX
   5
65E
100
AcDbEntity
   8
LAYER0
   6
CONTINUOUS
  62
      9
100
AcDbVertex
100
AcDb2dVertex
  10
-8.12099
  20
-4.74637
  30
0.0
   0
VERTEX
   5
65F
100
AcDbEntity
   8
LAYER0
   6
CONTINUOUS
  62
      9
100
AcDbVertex
100
AcDb2dVertex
  10
-8.05849
  20
-4.63812
  30
0.0
   0
SEQEND
   5
660
100
AcDbEntity
   8
LAYER0
   6
CONTINUOUS
   0
POLYLINE
   5
661
100
AcDbEntity
   8
LAYER0
   6
CONTINUOUS
  62
      9
100
AcDb2dPolyline
  66
      1
  10
0.0
  20
0.0
  30
0.0
  70
      1
  75
      5
   0
VERTEX
   5
662
100
AcDbEntity
   8
LAYER0
   6
CONTINUOUS
  62
      9
100
AcDbVertex
100
AcDb2dVertex
  10
-8.12099
  20
-4.74637
  30
0.0
   0
VERTEX
   5
663
100
AcDbEntity
   8
LAYER0
   6
CONTINUOUS
  62
      9
100
AcDbVertex
100
AcDb2dVertex
  10
-8.18349
  20
-4.63812
  30
0.0
   0
VERTEX
   5
664
100
AcDbEntity
   8
LAYER0
   6
CONTINUOUS
  62
      9
100
AcDbVertex
100
AcDb2dVertex
  10
-8.24599
  20
-3.85463
  30
0.0
   0
VERTEX
   5
665
100
AcDbEntity
   8
LAYER0
   6
CONTINUOUS
  62
      9
100
AcDbVertex
100
AcDb2dVertex
  10
-8.18349
  20
-3.74638
  30
0.0
   0
SEQEND
   5
666
100
AcDbEntity
   8
LAYER0
   6
CONTINUOUS
   0
POLYLINE
   5
667
100
AcDbEntity
   8
LAYER0
   6
CONTINUOUS
  62
      9
100
AcDb2dPolyline
  66
      1
  10
0.0
  20
0.0
  30
0.0
  70
      1
  75
      5
   0
VERTEX
   5
668
100
AcDbEntity
   8
LAYER0
   6
CONTINUOUS
  62
      9
100
AcDbVertex
100
AcDb2dVertex
  10
-8.24599
  20
-3.85463
  30
0.0
   0
VERTEX
   5
669
100
AcDbEntity
   8
LAYER0
   6
CONTINUOUS
  62
      9
100
AcDbVertex
100
AcDb2dVertex
  10
-8.30849
  20
-3.74638
  30
0.0
   0
VERTEX
   5
66A
100
AcDbEntity
   8
LAYER0
   6
CONTINUOUS
  62
      9
100
AcDbVertex
100
AcDb2dVertex
  10
-8.24599
  20
-4.74638
  30
0.0
   0
VERTEX
   5
66B
100
AcDbEntity
   8
LAYER0
   6
CONTINUOUS
  62
      9
100
AcDbVertex
100
AcDb2dVertex
  10
-8.18349
  20
-4.63813
  30
0.0
   0
SEQEND
   5
66C
100
AcDbEntity
   8
LAYER0
   6
CONTINUOUS
   0
POLYLINE
   5
66D
100
AcDbEntity
   8
LAYER0
   6
CONTINUOUS
  62
      9
100
AcDb2dPolyline
  66
      1
  10
0.0
  20
0.0
  30
0.0
  70
      1
  75
      5
   0
VERTEX
   5
66E
100
AcDbEntity
   8
LAYER0
   6
CONTINUOUS
  62
      9
100
AcDbVertex
100
AcDb2dVertex
  10
-8.24599
  20
-4.74638
  30
0.0
   0
VERTEX
   5
66F
100
AcDbEntity
   8
LAYER0
   6
CONTINUOUS
  62
      9
100
AcDbVertex
100
AcDb2dVertex
  10
-8.30849
  20
-4.63813
  30
0.0
   0
VERTEX
   5
670
100
AcDbEntity
   8
LAYER0
   6
CONTINUOUS
  62
      9
100
AcDbVertex
100
AcDb2dVertex
  10
-8.37099
  20
-3.85464
  30
0.0
   0
VERTEX
   5
671
100
AcDbEntity
   8
LAYER0
   6
CONTINUOUS
  62
      9
100
AcDbVertex
100
AcDb2dVertex
  10
-8.30849
  20
-3.74639
  30
0.0
   0
SEQEND
   5
672
100
AcDbEntity
   8
LAYER0
   6
CONTINUOUS
   0
POLYLINE
   5
673
100
AcDbEntity
   8
LAYER0
   6
CONTINUOUS
  62
      9
100
AcDb2dPolyline
  66
      1
  10
0.0
  20
0.0
  30
0.0
  70
      1
  75
      5
   0
VERTEX
   5
674
100
AcDbEntity
   8
LAYER0
   6
CONTINUOUS
  62
      9
100
AcDbVertex
100
AcDb2dVertex
  10
-8.37099
  20
-3.85464
  30
0.0
   0
VERTEX
   5
675
100
AcDbEntity
   8
LAYER0
   6
CONTINUOUS
  62
      9
100
AcDbVertex
100
AcDb2dVertex
  10
-8.43349
  20
-3.74639
  30
0.0
   0
VERTEX
   5
676
100
AcDbEntity
   8
LAYER0
   6
CONTINUOUS
  62
      9
100
AcDbVertex
100
AcDb2dVertex
  10
-8.37099
  20
-4.74639
  30
0.0
   0
VERTEX
   5
677
100
AcDbEntity
   8
LAYER0
   6
CONTINUOUS
  62
      9
100
AcDbVertex
100
AcDb2dVertex
  10
-8.30849
  20
-4.63814
  30
0.0
   0
SEQEND
   5
678
100
AcDbEntity
   8
LAYER0
   6
CONTINUOUS
   0
POLYLINE
   5
679
100
AcDbEntity
   8
LAYER0
   6
CONTINUOUS
  62
      9
100
AcDb2dPolyline
  66
      1
  10
0.0
  20
0.0
  30
0.0
  70
      1
  75
      5
   0
VERTEX
   5
67A
100
AcDbEntity
   8
LAYER0
   6
CONTINUOUS
  62
      9
100
AcDbVertex
100
AcDb2dVertex
  10
-8.37099
  20
-4.74639
  30
0.0
   0
VERTEX
   5
67B
100
AcDbEntity
   8
LAYER0
   6
CONTINUOUS
  62
      9
100
AcDbVertex
100
AcDb2dVertex
  10
-8.43349
  20
-4.63814
  30
0.0
   0
VERTEX
   5
67C
100
AcDbEntity
   8
LAYER0
   6
CONTINUOUS
  62
      9
100
AcDbVertex
100
AcDb2dVertex
  10
-8.49599
  20
-3.85465
  30
0.0
   0
VERTEX
   5
67D
100
AcDbEntity
   8
LAYER0
   6
CONTINUOUS
  62
      9
100
AcDbVertex
100
AcDb2dVertex
  10
-8.43349
  20
-3.7464
  30
0.0
   0
SEQEND
   5
67E
100
AcDbEntity
   8
LAYER0
   6
CONTINUOUS
   0
POLYLINE
   5
67F
100
AcDbEntity
   8
LAYER0
   6
CONTINUOUS
  62
      9
100
AcDb2dPolyline
  66
      1
  10
0.0
  20
0.0
  30
0.0
  70
      1
  75
      5
   0
VERTEX
   5
680
100
AcDbEntity
   8
LAYER0
   6
CONTINUOUS
  62
      9
100
AcDbVertex
100
AcDb2dVertex
  10
-8.49599
  20
-3.85465
  30
0.0
   0
VERTEX
   5
681
100
AcDbEntity
   8
LAYER0
   6
CONTINUOUS
  62
      9
100
AcDbVertex
100
AcDb2dVertex
  10
-8.55849
  20
-3.7464
  30
0.0
   0
VERTEX
   5
682
100
AcDbEntity
   8
LAYER0
   6
CONTINUOUS
  62
      9
100
AcDbVertex
100
AcDb2dVertex
  10
-8.49599
  20
-4.7464
  30
0.0
   0
VERTEX
   5
683
100
AcDbEntity
   8
LAYER0
   6
CONTINUOUS
  62
      9
100
AcDbVertex
100
AcDb2dVertex
  10
-8.43349
  20
-4.63815
  30
0.0
   0
SEQEND
   5
684
100
AcDbEntity
   8
LAYER0
   6
CONTINUOUS
   0
POLYLINE
   5
685
100
AcDbEntity
   8
LAYER0
   6
CONTINUOUS
  62
      9
100
AcDb2dPolyline
  66
      1
  10
0.0
  20
0.0
  30
0.0
  70
      1
  75
      5
   0
VERTEX
   5
686
100
AcDbEntity
   8
LAYER0
   6
CONTINUOUS
  62
      9
100
AcDbVertex
100
AcDb2dVertex
  10
-8.49599
  20
-4.7464
  30
0.0
   0
VERTEX
   5
687
100
AcDbEntity
   8
LAYER0
   6
CONTINUOUS
  62
      9
100
AcDbVertex
100
AcDb2dVertex
  10
-8.55849
  20
-4.63815
  30
0.0
   0
VERTEX
   5
688
100
AcDbEntity
   8
LAYER0
   6
CONTINUOUS
  62
      9
100
AcDbVertex
100
AcDb2dVertex
  10
-8.62099
  20
-3.85466
  30
0.0
   0
VERTEX
   5
689
100
AcDbEntity
   8
LAYER0
   6
CONTINUOUS
  62
      9
100
AcDbVertex
100
AcDb2dVertex
  10
-8.55849
  20
-3.74641
  30
0.0
   0
SEQEND
   5
68A
100
AcDbEntity
   8
LAYER0
   6
CONTINUOUS
   0
POLYLINE
   5
68B
100
AcDbEntity
   8
LAYER0
   6
CONTINUOUS
  62
      9
100
AcDb2dPolyline
  66
      1
  10
0.0
  20
0.0
  30
0.0
  70
      1
  75
      5
   0
VERTEX
   5
68C
100
AcDbEntity
   8
LAYER0
   6
CONTINUOUS
  62
      9
100
AcDbVertex
100
AcDb2dVertex
  10
-8.62099
  20
-3.85466
  30
0.0
   0
VERTEX
   5
68D
100
AcDbEntity
   8
LAYER0
   6
CONTINUOUS
  62
      9
100
AcDbVertex
100
AcDb2dVertex
  10
-8.68349
  20
-3.74641
  30
0.0
   0
VERTEX
   5
68E
100
AcDbEntity
   8
LAYER0
   6
CONTINUOUS
  62
      9
100
AcDbVertex
100
AcDb2dVertex
  10
-8.62099
  20
-4.74641
  30
0.0
   0
VERTEX
   5
68F
100
AcDbEntity
   8
LAYER0
   6
CONTINUOUS
  62
      9
100
AcDbVertex
100
AcDb2dVertex
  10
-8.55849
  20
-4.63816
  30
0.0
   0
SEQEND
   5
690
100
AcDbEntity
   8
LAYER0
   6
CONTINUOUS
   0
POLYLINE
   5
691
100
AcDbEntity
   8
LAYER0
   6
CONTINUOUS
  62
      9
100
AcDb2dPolyline
  66
      1
  10
0.0
  20
0.0
  30
0.0
  70
      1
  75
      5
   0
VERTEX
   5
692
100
AcDbEntity
   8
LAYER0
   6
CONTINUOUS
  62
      9
100
AcDbVertex
100
AcDb2dVertex
  10
-8.62099
  20
-4.74641
  30
0.0
   0
VERTEX
   5
693
100
AcDbEntity
   8
LAYER0
   6
CONTINUOUS
  62
      9
100
AcDbVertex
100
AcDb2dVertex
  10
-8.68349
  20
-4.63816
  30
0.0
   0
VERTEX
   5
694
100
AcDbEntity
   8
LAYER0
   6
CONTINUOUS
  62
      9
100
AcDbVertex
100
AcDb2dVertex
  10
-8.74599
  20
-3.85467
  30
0.0
   0
VERTEX
   5
695
100
AcDbEntity
   8
LAYER0
   6
CONTINUOUS
  62
      9
100
AcDbVertex
100
AcDb2dVertex
  10
-8.68349
  20
-3.74642
  30
0.0
   0
SEQEND
   5
696
100
AcDbEntity
   8
LAYER0
   6
CONTINUOUS
   0
POLYLINE
   5
697
100
AcDbEntity
   8
LAYER0
   6
CONTINUOUS
  62
      9
100
AcDb2dPolyline
  66
      1
  10
0.0
  20
0.0
  30
0.0
  70
      1
  75
      5
   0
VERTEX
   5
698
100
AcDbEntity
   8
LAYER0
   6
CONTINUOUS
  62
      9
100
AcDbVertex
100
AcDb2dVertex
  10
-8.74599
  20
-3.85467
  30
0.0
   0
VERTEX
   5
699
100
AcDbEntity
   8
LAYER0
   6
CONTINUOUS
  62
      9
100
AcDbVertex
100
AcDb2dVertex
  10
-8.80849
  20
-3.74642
  30
0.0
   0
VERTEX
   5
69A
100
AcDbEntity
   8
LAYER0
   6
CONTINUOUS
  62
      9
100
AcDbVertex
100
AcDb2dVertex
  10
-8.74599
  20
-4.74642
  30
0.0
   0
VERTEX
   5
69B
100
AcDbEntity
   8
LAYER0
   6
CONTINUOUS
  62
      9
100
AcDbVertex
100
AcDb2dVertex
  10
-8.68349
  20
-4.63817
  30
0.0
   0
SEQEND
   5
69C
100
AcDbEntity
   8
LAYER0
   6
CONTINUOUS
   0
POLYLINE
   5
69D
100
AcDbEntity
   8
LAYER0
   6
CONTINUOUS
  62
      9
100
AcDb2dPolyline
  66
      1
  10
0.0
  20
0.0
  30
0.0
  70
      1
  75
      5
   0
VERTEX
   5
69E
100
AcDbEntity
   8
LAYER0
   6
CONTINUOUS
  62
      9
100
AcDbVertex
100
AcDb2dVertex
  10
-8.74599
  20
-4.74642
  30
0.0
   0
VERTEX
   5
69F
100
AcDbEntity
   8
LAYER0
   6
CONTINUOUS
  62
      9
100
AcDbVertex
100
AcDb2dVertex
  10
-8.80849
  20
-4.63817
  30
0.0
   0
VERTEX
   5
6A0
100
AcDbEntity
   8
LAYER0
   6
CONTINUOUS
  62
      9
100
AcDbVertex
100
AcDb2dVertex
  10
-8.87099
  20
-3.85468
  30
0.0
   0
VERTEX
   5
6A1
100
AcDbEntity
   8
LAYER0
   6
CONTINUOUS
  62
      9
100
AcDbVertex
100
AcDb2dVertex
  10
-8.80849
  20
-3.74643
  30
0.0
   0
SEQEND
   5
6A2
100
AcDbEntity
   8
LAYER0
   6
CONTINUOUS
   0
POLYLINE
   5
6A3
100
AcDbEntity
   8
LAYER0
   6
CONTINUOUS
  62
      9
100
AcDb2dPolyline
  66
      1
  10
0.0
  20
0.0
  30
0.0
  70
      1
  75
      5
   0
VERTEX
   5
6A4
100
AcDbEntity
   8
LAYER0
   6
CONTINUOUS
  62
      9
100
AcDbVertex
100
AcDb2dVertex
  10
-8.87099
  20
-3.85468
  30
0.0
   0
VERTEX
   5
6A5
100
AcDbEntity
   8
LAYER0
   6
CONTINUOUS
  62
      9
100
AcDbVertex
100
AcDb2dVertex
  10
-8.93349
  20
-3.74643
  30
0.0
   0
VERTEX
   5
6A6
100
AcDbEntity
   8
LAYER0
   6
CONTINUOUS
  62
      9
100
AcDbVertex
100
AcDb2dVertex
  10
-8.87099
  20
-4.74643
  30
0.0
   0
VERTEX
   5
6A7
100
AcDbEntity
   8
LAYER0
   6
CONTINUOUS
  62
      9
100
AcDbVertex
100
AcDb2dVertex
  10
-8.80849
  20
-4.63818
  30
0.0
   0
SEQEND
   5
6A8
100
AcDbEntity
   8
LAYER0
   6
CONTINUOUS
   0
POLYLINE
   5
6A9
100
AcDbEntity
   8
LAYER0
   6
CONTINUOUS
  62
      9
100
AcDb2dPolyline
  66
      1
  10
0.0
  20
0.0
  30
0.0
  70
      1
  75
      5
   0
VERTEX
   5
6AA
100
AcDbEntity
   8
LAYER0
   6
CONTINUOUS
  62
      9
100
AcDbVertex
100
AcDb2dVertex
  10
-8.87099
  20
-4.74643
  30
0.0
   0
VERTEX
   5
6AB
100
AcDbEntity
   8
LAYER0
   6
CONTINUOUS
  62
      9
100
AcDbVertex
100
AcDb2dVertex
  10
-8.93349
  20
-4.63818
  30
0.0
   0
VERTEX
   5
6AC
100
AcDbEntity
   8
LAYER0
   6
CONTINUOUS
  62
      9
100
AcDbVertex
100
AcDb2dVertex
  10
-8.99599
  20
-3.85469
  30
0.0
   0
VERTEX
   5
6AD
100
AcDbEntity
   8
LAYER0
   6
CONTINUOUS
  62
      9
100
AcDbVertex
100
AcDb2dVertex
  10
-8.93349
  20
-3.74644
  30
0.0
   0
SEQEND
   5
6AE
100
AcDbEntity
   8
LAYER0
   6
CONTINUOUS
   0
POLYLINE
   5
6AF
100
AcDbEntity
   8
LAYER0
   6
CONTINUOUS
  62
      9
100
AcDb2dPolyline
  66
      1
  10
0.0
  20
0.0
  30
0.0
  70
      1
  75
      5
   0
VERTEX
   5
6B0
100
AcDbEntity
   8
LAYER0
   6
CONTINUOUS
  62
      9
100
AcDbVertex
100
AcDb2dVertex
  10
-8.99599
  20
-3.85469
  30
0.0
   0
VERTEX
   5
6B1
100
AcDbEntity
   8
LAYER0
   6
CONTINUOUS
  62
      9
100
AcDbVertex
100
AcDb2dVertex
  10
-9.05849
  20
-3.74644
  30
0.0
   0
VERTEX
   5
6B2
100
AcDbEntity
   8
LAYER0
   6
CONTINUOUS
  62
      9
100
AcDbVertex
100
AcDb2dVertex
  10
-8.99599
  20
-4.74644
  30
0.0
   0
VERTEX
   5
6B3
100
AcDbEntity
   8
LAYER0
   6
CONTINUOUS
  62
      9
100
AcDbVertex
100
AcDb2dVertex
  10
-8.93349
  20
-4.63819
  30
0.0
   0
SEQEND
   5
6B4
100
AcDbEntity
   8
LAYER0
   6
CONTINUOUS
   0
POLYLINE
   5
6B5
100
AcDbEntity
   8
LAYER0
   6
CONTINUOUS
  62
      9
100
AcDb2dPolyline
  66
      1
  10
0.0
  20
0.0
  30
0.0
  70
      1
  75
      5
   0
VERTEX
   5
6B6
100
AcDbEntity
   8
LAYER0
   6
CONTINUOUS
  62
      9
100
AcDbVertex
100
AcDb2dVertex
  10
-8.99599
  20
-4.74644
  30
0.0
   0
VERTEX
   5
6B7
100
AcDbEntity
   8
LAYER0
   6
CONTINUOUS
  62
      9
100
AcDbVertex
100
AcDb2dVertex
  10
-9.05849
  20
-4.63819
  30
0.0
   0
VERTEX
   5
6B8
100
AcDbEntity
   8
LAYER0
   6
CONTINUOUS
  62
      9
100
AcDbVertex
100
AcDb2dVertex
  10
-9.12099
  20
-3.8547
  30
0.0
   0
VERTEX
   5
6B9
100
AcDbEntity
   8
LAYER0
   6
CONTINUOUS
  62
      9
100
AcDbVertex
100
AcDb2dVertex
  10
-9.05849
  20
-3.74645
  30
0.0
   0
SEQEND
   5
6BA
100
AcDbEntity
   8
LAYER0
   6
CONTINUOUS
   0
POLYLINE
   5
6BB
100
AcDbEntity
   8
LAYER0
   6
CONTINUOUS
  62
      9
100
AcDb2dPolyline
  66
      1
  10
0.0
  20
0.0
  30
0.0
  70
      1
  75
      5
   0
VERTEX
   5
6BC
100
AcDbEntity
   8
LAYER0
   6
CONTINUOUS
  62
      9
100
AcDbVertex
100
AcDb2dVertex
  10
-9.12099
  20
-3.8547
  30
0.0
   0
VERTEX
   5
6BD
100
AcDbEntity
   8
LAYER0
   6
CONTINUOUS
  62
      9
100
AcDbVertex
100
AcDb2dVertex
  10
-9.18349
  20
-3.74645
  30
0.0
   0
VERTEX
   5
6BE
100
AcDbEntity
   8
LAYER0
   6
CONTINUOUS
  62
      9
100
AcDbVertex
100
AcDb2dVertex
  10
-9.12099
  20
-4.74645
  30
0.0
   0
VERTEX
   5
6BF
100
AcDbEntity
   8
LAYER0
   6
CONTINUOUS
  62
      9
100
AcDbVertex
100
AcDb2dVertex
  10
-9.05849
  20
-4.6382
  30
0.0
   0
SEQEND
   5
6C0
100
AcDbEntity
   8
LAYER0
   6
CONTINUOUS
   0
POLYLINE
   5
6C1
100
AcDbEntity
   8
LAYER0
   6
CONTINUOUS
  62
      9
100
AcDb2dPolyline
  66
      1
  10
0.0
  20
0.0
  30
0.0
  70
      1
  75
      5
   0
VERTEX
   5
6C2
100
AcDbEntity
   8
LAYER0
   6
CONTINUOUS
  62
      9
100
AcDbVertex
100
AcDb2dVertex
  10
-9.12099
  20
-4.74645
  30
0.0
   0
VERTEX
   5
6C3
100
AcDbEntity
   8
LAYER0
   6
CONTINUOUS
  62
      9
100
AcDbVertex
100
AcDb2dVertex
  10
-9.18349
  20
-4.6382
  30
0.0
   0
VERTEX
   5
6C4
100
AcDbEntity
   8
LAYER0
   6
CONTINUOUS
  62
      9
100
AcDbVertex
100
AcDb2dVertex
  10
-9.24599
  20
-3.85471
  30
0.0
   0
VERTEX
   5
6C5
100
AcDbEntity
   8
LAYER0
   6
CONTINUOUS
  62
      9
100
AcDbVertex
100
AcDb2dVertex
  10
-9.18349
  20
-3.74646
  30
0.0
   0
SEQEND
   5
6C6
100
AcDbEntity
   8
LAYER0
   6
CONTINUOUS
   0
POLYLINE
   5
6C7
100
AcDbEntity
   8
LAYER0
   6
CONTINUOUS
  62
      9
100
AcDb2dPolyline
  66
      1
  10
0.0
  20
0.0
  30
0.0
  70
      1
  75
      5
   0
VERTEX
   5
6C8
100
AcDbEntity
   8
LAYER0
   6
CONTINUOUS
  62
      9
100
AcDbVertex
100
AcDb2dVertex
  10
-9.24599
  20
-3.85471
  30
0.0
   0
VERTEX
   5
6C9
100
AcDbEntity
   8
LAYER0
   6
CONTINUOUS
  62
      9
100
AcDbVertex
100
AcDb2dVertex
  10
-9.30849
  20
-3.74646
  30
0.0
   0
VERTEX
   5
6CA
100
AcDbEntity
   8
LAYER0
   6
CONTINUOUS
  62
      9
100
AcDbVertex
100
AcDb2dVertex
  10
-9.24599
  20
-4.74646
  30
0.0
   0
VERTEX
   5
6CB
100
AcDbEntity
   8
LAYER0
   6
CONTINUOUS
  62
      9
100
AcDbVertex
100
AcDb2dVertex
  10
-9.18349
  20
-4.63821
  30
0.0
   0
SEQEND
   5
6CC
100
AcDbEntity
   8
LAYER0
   6
CONTINUOUS
   0
POLYLINE
   5
6CD
100
AcDbEntity
   8
LAYER0
   6
CONTINUOUS
  62
      9
100
AcDb2dPolyline
  66
      1
  10
0.0
  20
0.0
  30
0.0
  70
      1
  75
      5
   0
VERTEX
   5
6CE
100
AcDbEntity
   8
LAYER0
   6
CONTINUOUS
  62
      9
100
AcDbVertex
100
AcDb2dVertex
  10
-9.24599
  20
-4.74646
  30
0.0
   0
VERTEX
   5
6CF
100
AcDbEntity
   8
LAYER0
   6
CONTINUOUS
  62
      9
100
AcDbVertex
100
AcDb2dVertex
  10
-9.30849
  20
-4.63821
  30
0.0
   0
VERTEX
   5
6D0
100
AcDbEntity
   8
LAYER0
   6
CONTINUOUS
  62
      9
100
AcDbVertex
100
AcDb2dVertex
  10
-9.37099
  20
-3.85472
  30
0.0
   0
VERTEX
   5
6D1
100
AcDbEntity
   8
LAYER0
   6
CONTINUOUS
  62
      9
100
AcDbVertex
100
AcDb2dVertex
  10
-9.30849
  20
-3.74647
  30
0.0
   0
SEQEND
   5
6D2
100
AcDbEntity
   8
LAYER0
   6
CONTINUOUS
   0
POLYLINE
   5
6D3
100
AcDbEntity
   8
LAYER0
   6
CONTINUOUS
  62
      9
100
AcDb2dPolyline
  66
      1
  10
0.0
  20
0.0
  30
0.0
  70
      1
  75
      5
   0
VERTEX
   5
6D4
100
AcDbEntity
   8
LAYER0
   6
CONTINUOUS
  62
      9
100
AcDbVertex
100
AcDb2dVertex
  10
-9.37099
  20
-3.85472
  30
0.0
   0
VERTEX
   5
6D5
100
AcDbEntity
   8
LAYER0
   6
CONTINUOUS
  62
      9
100
AcDbVertex
100
AcDb2dVertex
  10
-9.43349
  20
-3.74647
  30
0.0
   0
VERTEX
   5
6D6
100
AcDbEntity
   8
LAYER0
   6
CONTINUOUS
  62
      9
100
AcDbVertex
100
AcDb2dVertex
  10
-9.37099
  20
-4.74647
  30
0.0
   0
VERTEX
   5
6D7
100
AcDbEntity
   8
LAYER0
   6
CONTINUOUS
  62
      9
100
AcDbVertex
100
AcDb2dVertex
  10
-9.30849
  20
-4.63822
  30
0.0
   0
SEQEND
   5
6D8
100
AcDbEntity
   8
LAYER0
   6
CONTINUOUS
   0
POLYLINE
   5
6D9
100
AcDbEntity
   8
LAYER0
   6
CONTINUOUS
  62
      9
100
AcDb2dPolyline
  66
      1
  10
0.0
  20
0.0
  30
0.0
  70
      1
  75
      5
   0
VERTEX
   5
6DA
100
AcDbEntity
   8
LAYER0
   6
CONTINUOUS
  62
      9
100
AcDbVertex
100
AcDb2dVertex
  10
-9.37099
  20
-4.74647
  30
0.0
   0
VERTEX
   5
6DB
100
AcDbEntity
   8
LAYER0
   6
CONTINUOUS
  62
      9
100
AcDbVertex
100
AcDb2dVertex
  10
-9.43349
  20
-4.63822
  30
0.0
   0
VERTEX
   5
6DC
100
AcDbEntity
   8
LAYER0
   6
CONTINUOUS
  62
      9
100
AcDbVertex
100
AcDb2dVertex
  10
-9.49599
  20
-3.85473
  30
0.0
   0
VERTEX
   5
6DD
100
AcDbEntity
   8
LAYER0
   6
CONTINUOUS
  62
      9
100
AcDbVertex
100
AcDb2dVertex
  10
-9.43349
  20
-3.74648
  30
0.0
   0
SEQEND
   5
6DE
100
AcDbEntity
   8
LAYER0
   6
CONTINUOUS
   0
POLYLINE
   5
6DF
100
AcDbEntity
   8
LAYER0
   6
CONTINUOUS
  62
      9
100
AcDb2dPolyline
  66
      1
  10
0.0
  20
0.0
  30
0.0
  70
      1
  75
      5
   0
VERTEX
   5
6E0
100
AcDbEntity
   8
LAYER0
   6
CONTINUOUS
  62
      9
100
AcDbVertex
100
AcDb2dVertex
  10
-9.49599
  20
-3.85473
  30
0.0
   0
VERTEX
   5
6E1
100
AcDbEntity
   8
LAYER0
   6
CONTINUOUS
  62
      9
100
AcDbVertex
100
AcDb2dVertex
  10
-9.55849
  20
-3.74648
  30
0.0
   0
VERTEX
   5
6E2
100
AcDbEntity
   8
LAYER0
   6
CONTINUOUS
  62
      9
100
AcDbVertex
100
AcDb2dVertex
  10
-9.49599
  20
-4.74648
  30
0.0
   0
VERTEX
   5
6E3
100
AcDbEntity
   8
LAYER0
   6
CONTINUOUS
  62
      9
100
AcDbVertex
100
AcDb2dVertex
  10
-9.43349
  20
-4.63823
  30
0.0
   0
SEQEND
   5
6E4
100
AcDbEntity
   8
LAYER0
   6
CONTINUOUS
   0
POLYLINE
   5
6E5
100
AcDbEntity
   8
LAYER0
   6
CONTINUOUS
  62
      9
100
AcDb2dPolyline
  66
      1
  10
0.0
  20
0.0
  30
0.0
  70
      1
  75
      5
   0
VERTEX
   5
6E6
100
AcDbEntity
   8
LAYER0
   6
CONTINUOUS
  62
      9
100
AcDbVertex
100
AcDb2dVertex
  10
-9.49599
  20
-4.74648
  30
0.0
   0
VERTEX
   5
6E7
100
AcDbEntity
   8
LAYER0
   6
CONTINUOUS
  62
      9
100
AcDbVertex
100
AcDb2dVertex
  10
-9.55849
  20
-4.63823
  30
0.0
   0
VERTEX
   5
6E8
100
AcDbEntity
   8
LAYER0
   6
CONTINUOUS
  62
      9
100
AcDbVertex
100
AcDb2dVertex
  10
-9.62099
  20
-3.85474
  30
0.0
   0
VERTEX
   5
6E9
100
AcDbEntity
   8
LAYER0
   6
CONTINUOUS
  62
      9
100
AcDbVertex
100
AcDb2dVertex
  10
-9.55849
  20
-3.74649
  30
0.0
   0
SEQEND
   5
6EA
100
AcDbEntity
   8
LAYER0
   6
CONTINUOUS
   0
POLYLINE
   5
6EB
100
AcDbEntity
   8
LAYER0
   6
CONTINUOUS
  62
      9
100
AcDb2dPolyline
  66
      1
  10
0.0
  20
0.0
  30
0.0
  70
      1
  75
      5
   0
VERTEX
   5
6EC
100
AcDbEntity
   8
LAYER0
   6
CONTINUOUS
  62
      9
100
AcDbVertex
100
AcDb2dVertex
  10
-9.62099
  20
-3.85474
  30
0.0
   0
VERTEX
   5
6ED
100
AcDbEntity
   8
LAYER0
   6
CONTINUOUS
  62
      9
100
AcDbVertex
100
AcDb2dVertex
  10
-9.68349
  20
-3.74649
  30
0.0
   0
VERTEX
   5
6EE
100
AcDbEntity
   8
LAYER0
   6
CONTINUOUS
  62
      9
100
AcDbVertex
100
AcDb2dVertex
  10
-9.62099
  20
-4.74649
  30
0.0
   0
VERTEX
   5
6EF
100
AcDbEntity
   8
LAYER0
   6
CONTINUOUS
  62
      9
100
AcDbVertex
100
AcDb2dVertex
  10
-9.55849
  20
-4.63824
  30
0.0
   0
SEQEND
   5
6F0
100
AcDbEntity
   8
LAYER0
   6
CONTINUOUS
   0
POLYLINE
   5
6F1
100
AcDbEntity
   8
LAYER0
   6
CONTINUOUS
  62
      9
100
AcDb2dPolyline
  66
      1
  10
0.0
  20
0.0
  30
0.0
  70
      1
  75
      5
   0
VERTEX
   5
6F2
100
AcDbEntity
   8
LAYER0
   6
CONTINUOUS
  62
      9
100
AcDbVertex
100
AcDb2dVertex
  10
-9.62099
  20
-4.74649
  30
0.0
   0
VERTEX
   5
6F3
100
AcDbEntity
   8
LAYER0
   6
CONTINUOUS
  62
      9
100
AcDbVertex
100
AcDb2dVertex
  10
-9.68349
  20
-4.63824
  30
0.0
   0
VERTEX
   5
6F4
100
AcDbEntity
   8
LAYER0
   6
CONTINUOUS
  62
      9
100
AcDbVertex
100
AcDb2dVertex
  10
-9.74599
  20
-3.85475
  30
0.0
   0
VERTEX
   5
6F5
100
AcDbEntity
   8
LAYER0
   6
CONTINUOUS
  62
      9
100
AcDbVertex
100
AcDb2dVertex
  10
-9.68349
  20
-3.7465
  30
0.0
   0
SEQEND
   5
6F6
100
AcDbEntity
   8
LAYER0
   6
CONTINUOUS
   0
POLYLINE
   5
6F7
100
AcDbEntity
   8
LAYER0
   6
CONTINUOUS
  62
      9
100
AcDb2dPolyline
  66
      1
  10
0.0
  20
0.0
  30
0.0
  70
      1
  75
      5
   0
VERTEX
   5
6F8
100
AcDbEntity
   8
LAYER0
   6
CONTINUOUS
  62
      9
100
AcDbVertex
100
AcDb2dVertex
  10
-9.74599
  20
-3.85475
  30
0.0
   0
VERTEX
   5
6F9
100
AcDbEntity
   8
LAYER0
   6
CONTINUOUS
  62
      9
100
AcDbVertex
100
AcDb2dVertex
  10
-9.80849
  20
-3.7465
  30
0.0
   0
VERTEX
   5
6FA
100
AcDbEntity
   8
LAYER0
   6
CONTINUOUS
  62
      9
100
AcDbVertex
100
AcDb2dVertex
  10
-9.74599
  20
-4.7465
  30
0.0
   0
VERTEX
   5
6FB
100
AcDbEntity
   8
LAYER0
   6
CONTINUOUS
  62
      9
100
AcDbVertex
100
AcDb2dVertex
  10
-9.68349
  20
-4.63825
  30
0.0
   0
SEQEND
   5
6FC
100
AcDbEntity
   8
LAYER0
   6
CONTINUOUS
   0
POLYLINE
   5
6FD
100
AcDbEntity
   8
LAYER0
   6
CONTINUOUS
  62
      9
100
AcDb2dPolyline
  66
      1
  10
0.0
  20
0.0
  30
0.0
  70
      1
  75
      5
   0
VERTEX
   5
6FE
100
AcDbEntity
   8
LAYER0
   6
CONTINUOUS
  62
      9
100
AcDbVertex
100
AcDb2dVertex
  10
-9.74599
  20
-4.7465
  30
0.0
   0
VERTEX
   5
6FF
100
AcDbEntity
   8
LAYER0
   6
CONTINUOUS
  62
      9
100
AcDbVertex
100
AcDb2dVertex
  10
-9.80849
  20
-4.63825
  30
0.0
   0
VERTEX
   5
700
100
AcDbEntity
   8
LAYER0
   6
CONTINUOUS
  62
      9
100
AcDbVertex
100
AcDb2dVertex
  10
-9.87099
  20
-3.85476
  30
0.0
   0
VERTEX
   5
701
100
AcDbEntity
   8
LAYER0
   6
CONTINUOUS
  62
      9
100
AcDbVertex
100
AcDb2dVertex
  10
-9.80849
  20
-3.74651
  30
0.0
   0
SEQEND
   5
702
100
AcDbEntity
   8
LAYER0
   6
CONTINUOUS
   0
POLYLINE
   5
703
100
AcDbEntity
   8
LAYER0
   6
CONTINUOUS
  62
      9
100
AcDb2dPolyline
  66
      1
  10
0.0
  20
0.0
  30
0.0
  70
      1
  75
      5
   0
VERTEX
   5
704
100
AcDbEntity
   8
LAYER0
   6
CONTINUOUS
  62
      9
100
AcDbVertex
100
AcDb2dVertex
  10
-9.87099
  20
-3.85476
  30
0.0
   0
VERTEX
   5
705
100
AcDbEntity
   8
LAYER0
   6
CONTINUOUS
  62
      9
100
AcDbVertex
100
AcDb2dVertex
  10
-9.93349
  20
-3.74651
  30
0.0
   0
VERTEX
   5
706
100
AcDbEntity
   8
LAYER0
   6
CONTINUOUS
  62
      9
100
AcDbVertex
100
AcDb2dVertex
  10
-9.87099
  20
-4.74651
  30
0.0
   0
VERTEX
   5
707
100
AcDbEntity
   8
LAYER0
   6
CONTINUOUS
  62
      9
100
AcDbVertex
100
AcDb2dVertex
  10
-9.80849
  20
-4.63826
  30
0.0
   0
SEQEND
   5
708
100
AcDbEntity
   8
LAYER0
   6
CONTINUOUS
   0
POLYLINE
   5
709
100
AcDbEntity
   8
LAYER0
   6
CONTINUOUS
  62
      9
100
AcDb2dPolyline
  66
      1
  10
0.0
  20
0.0
  30
0.0
  70
      1
  75
      5
   0
VERTEX
   5
70A
100
AcDbEntity
   8
LAYER0
   6
CONTINUOUS
  62
      9
100
AcDbVertex
100
AcDb2dVertex
  10
-9.87099
  20
-4.74651
  30
0.0
   0
VERTEX
   5
70B
100
AcDbEntity
   8
LAYER0
   6
CONTINUOUS
  62
      9
100
AcDbVertex
100
AcDb2dVertex
  10
-9.93349
  20
-4.63826
  30
0.0
   0
VERTEX
   5
70C
100
AcDbEntity
   8
LAYER0
   6
CONTINUOUS
  62
      9
100
AcDbVertex
100
AcDb2dVertex
  10
-9.99599
  20
-3.85477
  30
0.0
   0
VERTEX
   5
70D
100
AcDbEntity
   8
LAYER0
   6
CONTINUOUS
  62
      9
100
AcDbVertex
100
AcDb2dVertex
  10
-9.93349
  20
-3.74652
  30
0.0
   0
SEQEND
   5
70E
100
AcDbEntity
   8
LAYER0
   6
CONTINUOUS
   0
POLYLINE
   5
70F
100
AcDbEntity
   8
LAYER0
   6
CONTINUOUS
  62
      9
100
AcDb2dPolyline
  66
      1
  10
0.0
  20
0.0
  30
0.0
  70
      1
  75
      5
   0
VERTEX
   5
710
100
AcDbEntity
   8
LAYER0
   6
CONTINUOUS
  62
      9
100
AcDbVertex
100
AcDb2dVertex
  10
-9.99599
  20
-3.85477
  30
0.0
   0
VERTEX
   5
711
100
AcDbEntity
   8
LAYER0
   6
CONTINUOUS
  62
      9
100
AcDbVertex
100
AcDb2dVertex
  10
-10.05849
  20
-3.74652
  30
0.0
   0
VERTEX
   5
712
100
AcDbEntity
   8
LAYER0
   6
CONTINUOUS
  62
      9
100
AcDbVertex
100
AcDb2dVertex
  10
-9.99599
  20
-4.74652
  30
0.0
   0
VERTEX
   5
713
100
AcDbEntity
   8
LAYER0
   6
CONTINUOUS
  62
      9
100
AcDbVertex
100
AcDb2dVertex
  10
-9.93349
  20
-4.63827
  30
0.0
   0
SEQEND
   5
714
100
AcDbEntity
   8
LAYER0
   6
CONTINUOUS
   0
POLYLINE
   5
715
100
AcDbEntity
   8
LAYER0
   6
CONTINUOUS
  62
      9
100
AcDb2dPolyline
  66
      1
  10
0.0
  20
0.0
  30
0.0
  70
      1
  75
      5
   0
VERTEX
   5
716
100
AcDbEntity
   8
LAYER0
   6
CONTINUOUS
  62
      9
100
AcDbVertex
100
AcDb2dVertex
  10
-9.99599
  20
-4.74652
  30
0.0
   0
VERTEX
   5
717
100
AcDbEntity
   8
LAYER0
   6
CONTINUOUS
  62
      9
100
AcDbVertex
100
AcDb2dVertex
  10
-10.05849
  20
-4.63827
  30
0.0
   0
VERTEX
   5
718
100
AcDbEntity
   8
LAYER0
   6
CONTINUOUS
  62
      9
100
AcDbVertex
100
AcDb2dVertex
  10
-10.12099
  20
-3.85478
  30
0.0
   0
VERTEX
   5
719
100
AcDbEntity
   8
LAYER0
   6
CONTINUOUS
  62
      9
100
AcDbVertex
100
AcDb2dVertex
  10
-10.05849
  20
-3.74653
  30
0.0
   0
SEQEND
   5
71A
100
AcDbEntity
   8
LAYER0
   6
CONTINUOUS
   0
POLYLINE
   5
71B
100
AcDbEntity
   8
LAYER0
   6
CONTINUOUS
  62
      9
100
AcDb2dPolyline
  66
      1
  10
0.0
  20
0.0
  30
0.0
  70
      1
  75
      5
   0
VERTEX
   5
71C
100
AcDbEntity
   8
LAYER0
   6
CONTINUOUS
  62
      9
100
AcDbVertex
100
AcDb2dVertex
  10
-10.12099
  20
-3.85478
  30
0.0
   0
VERTEX
   5
71D
100
AcDbEntity
   8
LAYER0
   6
CONTINUOUS
  62
      9
100
AcDbVertex
100
AcDb2dVertex
  10
-10.18349
  20
-3.74653
  30
0.0
   0
VERTEX
   5
71E
100
AcDbEntity
   8
LAYER0
   6
CONTINUOUS
  62
      9
100
AcDbVertex
100
AcDb2dVertex
  10
-10.12099
  20
-4.74653
  30
0.0
   0
VERTEX
   5
71F
100
AcDbEntity
   8
LAYER0
   6
CONTINUOUS
  62
      9
100
AcDbVertex
100
AcDb2dVertex
  10
-10.05849
  20
-4.63828
  30
0.0
   0
SEQEND
   5
720
100
AcDbEntity
   8
LAYER0
   6
CONTINUOUS
   0
POLYLINE
   5
721
100
AcDbEntity
   8
LAYER0
   6
CONTINUOUS
  62
      9
100
AcDb2dPolyline
  66
      1
  10
0.0
  20
0.0
  30
0.0
  70
      1
  75
      5
   0
VERTEX
   5
722
100
AcDbEntity
   8
LAYER0
   6
CONTINUOUS
  62
      9
100
AcDbVertex
100
AcDb2dVertex
  10
-10.12099
  20
-4.74653
  30
0.0
   0
VERTEX
   5
723
100
AcDbEntity
   8
LAYER0
   6
CONTINUOUS
  62
      9
100
AcDbVertex
100
AcDb2dVertex
  10
-10.18349
  20
-4.63828
  30
0.0
   0
VERTEX
   5
724
100
AcDbEntity
   8
LAYER0
   6
CONTINUOUS
  62
      9
100
AcDbVertex
100
AcDb2dVertex
  10
-10.24599
  20
-3.85479
  30
0.0
   0
VERTEX
   5
725
100
AcDbEntity
   8
LAYER0
   6
CONTINUOUS
  62
      9
100
AcDbVertex
100
AcDb2dVertex
  10
-10.18349
  20
-3.74654
  30
0.0
   0
SEQEND
   5
726
100
AcDbEntity
   8
LAYER0
   6
CONTINUOUS
   0
POLYLINE
   5
727
100
AcDbEntity
   8
LAYER0
   6
CONTINUOUS
  62
      9
100
AcDb2dPolyline
  66
      1
  10
0.0
  20
0.0
  30
0.0
  70
      1
  75
      5
   0
VERTEX
   5
728
100
AcDbEntity
   8
LAYER0
   6
CONTINUOUS
  62
      9
100
AcDbVertex
100
AcDb2dVertex
  10
-10.24599
  20
-3.85479
  30
0.0
   0
VERTEX
   5
729
100
AcDbEntity
   8
LAYER0
   6
CONTINUOUS
  62
      9
100
AcDbVertex
100
AcDb2dVertex
  10
-10.30849
  20
-3.74654
  30
0.0
   0
VERTEX
   5
72A
100
AcDbEntity
   8
LAYER0
   6
CONTINUOUS
  62
      9
100
AcDbVertex
100
AcDb2dVertex
  10
-10.24599
  20
-4.74654
  30
0.0
   0
VERTEX
   5
72B
100
AcDbEntity
   8
LAYER0
   6
CONTINUOUS
  62
      9
100
AcDbVertex
100
AcDb2dVertex
  10
-10.18349
  20
-4.63829
  30
0.0
   0
SEQEND
   5
72C
100
AcDbEntity
   8
LAYER0
   6
CONTINUOUS
   0
POLYLINE
   5
72D
100
AcDbEntity
   8
LAYER0
   6
CONTINUOUS
  62
      9
100
AcDb2dPolyline
  66
      1
  10
0.0
  20
0.0
  30
0.0
  70
      1
  75
      5
   0
VERTEX
   5
72E
100
AcDbEntity
   8
LAYER0
   6
CONTINUOUS
  62
      9
100
AcDbVertex
100
AcDb2dVertex
  10
-10.24599
  20
-4.74654
  30
0.0
   0
VERTEX
   5
72F
100
AcDbEntity
   8
LAYER0
   6
CONTINUOUS
  62
      9
100
AcDbVertex
100
AcDb2dVertex
  10
-10.30849
  20
-4.63829
  30
0.0
   0
VERTEX
   5
730
100
AcDbEntity
   8
LAYER0
   6
CONTINUOUS
  62
      9
100
AcDbVertex
100
AcDb2dVertex
  10
-10.37099
  20
-3.8548
  30
0.0
   0
VERTEX
   5
731
100
AcDbEntity
   8
LAYER0
   6
CONTINUOUS
  62
      9
100
AcDbVertex
100
AcDb2dVertex
  10
-10.30849
  20
-3.74655
  30
0.0
   0
SEQEND
   5
732
100
AcDbEntity
   8
LAYER0
   6
CONTINUOUS
   0
POLYLINE
   5
733
100
AcDbEntity
   8
LAYER0
   6
CONTINUOUS
  62
      9
100
AcDb2dPolyline
  66
      1
  10
0.0
  20
0.0
  30
0.0
  70
      1
  75
      5
   0
VERTEX
   5
734
100
AcDbEntity
   8
LAYER0
   6
CONTINUOUS
  62
      9
100
AcDbVertex
100
AcDb2dVertex
  10
-10.37099
  20
-3.8548
  30
0.0
   0
VERTEX
   5
735
100
AcDbEntity
   8
LAYER0
   6
CONTINUOUS
  62
      9
100
AcDbVertex
100
AcDb2dVertex
  10
-10.43349
  20
-3.74655
  30
0.0
   0
VERTEX
   5
736
100
AcDbEntity
   8
LAYER0
   6
CONTINUOUS
  62
      9
100
AcDbVertex
100
AcDb2dVertex
  10
-10.37099
  20
-4.74655
  30
0.0
   0
VERTEX
   5
737
100
AcDbEntity
   8
LAYER0
   6
CONTINUOUS
  62
      9
100
AcDbVertex
100
AcDb2dVertex
  10
-10.30849
  20
-4.6383
  30
0.0
   0
SEQEND
   5
738
100
AcDbEntity
   8
LAYER0
   6
CONTINUOUS
   0
POLYLINE
   5
739
100
AcDbEntity
   8
LAYER0
   6
CONTINUOUS
  62
      9
100
AcDb2dPolyline
  66
      1
  10
0.0
  20
0.0
  30
0.0
  70
      1
  75
      5
   0
VERTEX
   5
73A
100
AcDbEntity
   8
LAYER0
   6
CONTINUOUS
  62
      9
100
AcDbVertex
100
AcDb2dVertex
  10
-10.37099
  20
-4.74655
  30
0.0
   0
VERTEX
   5
73B
100
AcDbEntity
   8
LAYER0
   6
CONTINUOUS
  62
      9
100
AcDbVertex
100
AcDb2dVertex
  10
-10.43349
  20
-4.6383
  30
0.0
   0
VERTEX
   5
73C
100
AcDbEntity
   8
LAYER0
   6
CONTINUOUS
  62
      9
100
AcDbVertex
100
AcDb2dVertex
  10
-10.49599
  20
-3.85481
  30
0.0
   0
VERTEX
   5
73D
100
AcDbEntity
   8
LAYER0
   6
CONTINUOUS
  62
      9
100
AcDbVertex
100
AcDb2dVertex
  10
-10.43349
  20
-3.74656
  30
0.0
   0
SEQEND
   5
73E
100
AcDbEntity
   8
LAYER0
   6
CONTINUOUS
   0
POLYLINE
   5
73F
100
AcDbEntity
   8
LAYER0
   6
CONTINUOUS
  62
      9
100
AcDb2dPolyline
  66
      1
  10
0.0
  20
0.0
  30
0.0
  70
      1
  75
      5
   0
VERTEX
   5
740
100
AcDbEntity
   8
LAYER0
   6
CONTINUOUS
  62
      9
100
AcDbVertex
100
AcDb2dVertex
  10
-10.49599
  20
-3.85481
  30
0.0
   0
VERTEX
   5
741
100
AcDbEntity
   8
LAYER0
   6
CONTINUOUS
  62
      9
100
AcDbVertex
100
AcDb2dVertex
  10
-10.55849
  20
-3.74656
  30
0.0
   0
VERTEX
   5
742
100
AcDbEntity
   8
LAYER0
   6
CONTINUOUS
  62
      9
100
AcDbVertex
100
AcDb2dVertex
  10
-10.49599
  20
-4.74656
  30
0.0
   0
VERTEX
   5
743
100
AcDbEntity
   8
LAYER0
   6
CONTINUOUS
  62
      9
100
AcDbVertex
100
AcDb2dVertex
  10
-10.43349
  20
-4.63831
  30
0.0
   0
SEQEND
   5
744
100
AcDbEntity
   8
LAYER0
   6
CONTINUOUS
   0
POLYLINE
   5
745
100
AcDbEntity
   8
LAYER0
   6
CONTINUOUS
  62
      9
100
AcDb2dPolyline
  66
      1
  10
0.0
  20
0.0
  30
0.0
  70
      1
  75
      5
   0
VERTEX
   5
746
100
AcDbEntity
   8
LAYER0
   6
CONTINUOUS
  62
      9
100
AcDbVertex
100
AcDb2dVertex
  10
-10.49599
  20
-4.74656
  30
0.0
   0
VERTEX
   5
747
100
AcDbEntity
   8
LAYER0
   6
CONTINUOUS
  62
      9
100
AcDbVertex
100
AcDb2dVertex
  10
-10.55849
  20
-4.63831
  30
0.0
   0
VERTEX
   5
748
100
AcDbEntity
   8
LAYER0
   6
CONTINUOUS
  62
      9
100
AcDbVertex
100
AcDb2dVertex
  10
-10.62099
  20
-3.85482
  30
0.0
   0
VERTEX
   5
749
100
AcDbEntity
   8
LAYER0
   6
CONTINUOUS
  62
      9
100
AcDbVertex
100
AcDb2dVertex
  10
-10.55849
  20
-3.74657
  30
0.0
   0
SEQEND
   5
74A
100
AcDbEntity
   8
LAYER0
   6
CONTINUOUS
   0
POLYLINE
   5
74B
100
AcDbEntity
   8
LAYER0
   6
CONTINUOUS
  62
      9
100
AcDb2dPolyline
  66
      1
  10
0.0
  20
0.0
  30
0.0
  70
      1
  75
      5
   0
VERTEX
   5
74C
100
AcDbEntity
   8
LAYER0
   6
CONTINUOUS
  62
      9
100
AcDbVertex
100
AcDb2dVertex
  10
-10.62099
  20
-3.85482
  30
0.0
   0
VERTEX
   5
74D
100
AcDbEntity
   8
LAYER0
   6
CONTINUOUS
  62
      9
100
AcDbVertex
100
AcDb2dVertex
  10
-10.68349
  20
-3.74657
  30
0.0
   0
VERTEX
   5
74E
100
AcDbEntity
   8
LAYER0
   6
CONTINUOUS
  62
      9
100
AcDbVertex
100
AcDb2dVertex
  10
-10.62099
  20
-4.74657
  30
0.0
   0
VERTEX
   5
74F
100
AcDbEntity
   8
LAYER0
   6
CONTINUOUS
  62
      9
100
AcDbVertex
100
AcDb2dVertex
  10
-10.55849
  20
-4.63832
  30
0.0
   0
SEQEND
   5
750
100
AcDbEntity
   8
LAYER0
   6
CONTINUOUS
   0
POLYLINE
   5
751
100
AcDbEntity
   8
LAYER0
   6
CONTINUOUS
  62
      9
100
AcDb2dPolyline
  66
      1
  10
0.0
  20
0.0
  30
0.0
  70
      1
  75
      5
   0
VERTEX
   5
752
100
AcDbEntity
   8
LAYER0
   6
CONTINUOUS
  62
      9
100
AcDbVertex
100
AcDb2dVertex
  10
-10.62099
  20
-4.74657
  30
0.0
   0
VERTEX
   5
753
100
AcDbEntity
   8
LAYER0
   6
CONTINUOUS
  62
      9
100
AcDbVertex
100
AcDb2dVertex
  10
-10.68349
  20
-4.63832
  30
0.0
   0
VERTEX
   5
754
100
AcDbEntity
   8
LAYER0
   6
CONTINUOUS
  62
      9
100
AcDbVertex
100
AcDb2dVertex
  10
-10.74599
  20
-3.85483
  30
0.0
   0
VERTEX
   5
755
100
AcDbEntity
   8
LAYER0
   6
CONTINUOUS
  62
      9
100
AcDbVertex
100
AcDb2dVertex
  10
-10.68349
  20
-3.74658
  30
0.0
   0
SEQEND
   5
756
100
AcDbEntity
   8
LAYER0
   6
CONTINUOUS
   0
POLYLINE
   5
757
100
AcDbEntity
   8
LAYER0
   6
CONTINUOUS
  62
      9
100
AcDb2dPolyline
  66
      1
  10
0.0
  20
0.0
  30
0.0
  70
      1
  75
      5
   0
VERTEX
   5
758
100
AcDbEntity
   8
LAYER0
   6
CONTINUOUS
  62
      9
100
AcDbVertex
100
AcDb2dVertex
  10
-10.74599
  20
-3.85483
  30
0.0
   0
VERTEX
   5
759
100
AcDbEntity
   8
LAYER0
   6
CONTINUOUS
  62
      9
100
AcDbVertex
100
AcDb2dVertex
  10
-10.80849
  20
-3.74658
  30
0.0
   0
VERTEX
   5
75A
100
AcDbEntity
   8
LAYER0
   6
CONTINUOUS
  62
      9
100
AcDbVertex
100
AcDb2dVertex
  10
-10.74599
  20
-4.74658
  30
0.0
   0
VERTEX
   5
75B
100
AcDbEntity
   8
LAYER0
   6
CONTINUOUS
  62
      9
100
AcDbVertex
100
AcDb2dVertex
  10
-10.68349
  20
-4.63833
  30
0.0
   0
SEQEND
   5
75C
100
AcDbEntity
   8
LAYER0
   6
CONTINUOUS
   0
POLYLINE
   5
75D
100
AcDbEntity
   8
LAYER0
   6
CONTINUOUS
  62
      9
100
AcDb2dPolyline
  66
      1
  10
0.0
  20
0.0
  30
0.0
  70
      1
  75
      5
   0
VERTEX
   5
75E
100
AcDbEntity
   8
LAYER0
   6
CONTINUOUS
  62
      9
100
AcDbVertex
100
AcDb2dVertex
  10
-10.74599
  20
-4.74658
  30
0.0
   0
VERTEX
   5
75F
100
AcDbEntity
   8
LAYER0
   6
CONTINUOUS
  62
      9
100
AcDbVertex
100
AcDb2dVertex
  10
-10.80849
  20
-4.63833
  30
0.0
   0
VERTEX
   5
760
100
AcDbEntity
   8
LAYER0
   6
CONTINUOUS
  62
      9
100
AcDbVertex
100
AcDb2dVertex
  10
-10.87099
  20
-3.85484
  30
0.0
   0
VERTEX
   5
761
100
AcDbEntity
   8
LAYER0
   6
CONTINUOUS
  62
      9
100
AcDbVertex
100
AcDb2dVertex
  10
-10.80849
  20
-3.74659
  30
0.0
   0
SEQEND
   5
762
100
AcDbEntity
   8
LAYER0
   6
CONTINUOUS
   0
POLYLINE
   5
763
100
AcDbEntity
   8
LAYER0
   6
CONTINUOUS
  62
      9
100
AcDb2dPolyline
  66
      1
  10
0.0
  20
0.0
  30
0.0
  70
      1
  75
      5
   0
VERTEX
   5
764
100
AcDbEntity
   8
LAYER0
   6
CONTINUOUS
  62
      9
100
AcDbVertex
100
AcDb2dVertex
  10
-10.87099
  20
-3.85484
  30
0.0
   0
VERTEX
   5
765
100
AcDbEntity
   8
LAYER0
   6
CONTINUOUS
  62
      9
100
AcDbVertex
100
AcDb2dVertex
  10
-10.93349
  20
-3.74659
  30
0.0
   0
VERTEX
   5
766
100
AcDbEntity
   8
LAYER0
   6
CONTINUOUS
  62
      9
100
AcDbVertex
100
AcDb2dVertex
  10
-10.87099
  20
-4.74659
  30
0.0
   0
VERTEX
   5
767
100
AcDbEntity
   8
LAYER0
   6
CONTINUOUS
  62
      9
100
AcDbVertex
100
AcDb2dVertex
  10
-10.80849
  20
-4.63834
  30
0.0
   0
SEQEND
   5
768
100
AcDbEntity
   8
LAYER0
   6
CONTINUOUS
   0
POLYLINE
   5
769
100
AcDbEntity
   8
LAYER0
   6
CONTINUOUS
  62
      9
100
AcDb2dPolyline
  66
      1
  10
0.0
  20
0.0
  30
0.0
  70
      1
  75
      5
   0
VERTEX
   5
76A
100
AcDbEntity
   8
LAYER0
   6
CONTINUOUS
  62
      9
100
AcDbVertex
100
AcDb2dVertex
  10
-10.87099
  20
-4.74659
  30
0.0
   0
VERTEX
   5
76B
100
AcDbEntity
   8
LAYER0
   6
CONTINUOUS
  62
      9
100
AcDbVertex
100
AcDb2dVertex
  10
-10.93349
  20
-4.63834
  30
0.0
   0
VERTEX
   5
76C
100
AcDbEntity
   8
LAYER0
   6
CONTINUOUS
  62
      9
100
AcDbVertex
100
AcDb2dVertex
  10
-10.99599
  20
-3.85485
  30
0.0
   0
VERTEX
   5
76D
100
AcDbEntity
   8
LAYER0
   6
CONTINUOUS
  62
      9
100
AcDbVertex
100
AcDb2dVertex
  10
-10.93349
  20
-3.7466
  30
0.0
   0
SEQEND
   5
76E
100
AcDbEntity
   8
LAYER0
   6
CONTINUOUS
   0
POLYLINE
   5
76F
100
AcDbEntity
   8
LAYER0
   6
CONTINUOUS
  62
      9
100
AcDb2dPolyline
  66
      1
  10
0.0
  20
0.0
  30
0.0
  70
      1
  75
      5
   0
VERTEX
   5
770
100
AcDbEntity
   8
LAYER0
   6
CONTINUOUS
  62
      9
100
AcDbVertex
100
AcDb2dVertex
  10
-10.99599
  20
-3.85485
  30
0.0
   0
VERTEX
   5
771
100
AcDbEntity
   8
LAYER0
   6
CONTINUOUS
  62
      9
100
AcDbVertex
100
AcDb2dVertex
  10
-11.05849
  20
-3.7466
  30
0.0
   0
VERTEX
   5
772
100
AcDbEntity
   8
LAYER0
   6
CONTINUOUS
  62
      9
100
AcDbVertex
100
AcDb2dVertex
  10
-10.99599
  20
-4.7466
  30
0.0
   0
VERTEX
   5
773
100
AcDbEntity
   8
LAYER0
   6
CONTINUOUS
  62
      9
100
AcDbVertex
100
AcDb2dVertex
  10
-10.93349
  20
-4.63835
  30
0.0
   0
SEQEND
   5
774
100
AcDbEntity
   8
LAYER0
   6
CONTINUOUS
   0
POLYLINE
   5
775
100
AcDbEntity
   8
LAYER0
   6
CONTINUOUS
  62
      9
100
AcDb2dPolyline
  66
      1
  10
0.0
  20
0.0
  30
0.0
  75
      5
   0
VERTEX
   5
776
100
AcDbEntity
   8
LAYER0
   6
CONTINUOUS
  62
      9
100
AcDbVertex
100
AcDb2dVertex
  10
-11.05849
  20
-3.7466
  30
0.0
   0
VERTEX
   5
777
100
AcDbEntity
   8
LAYER0
   6
CONTINUOUS
  62
      9
100
AcDbVertex
100
AcDb2dVertex
  10
-10.99599
  20
-4.7466
  30
0.0
   0
VERTEX
   5
778
100
AcDbEntity
   8
LAYER0
   6
CONTINUOUS
  62
      9
100
AcDbVertex
100
AcDb2dVertex
  10
-11.05849
  20
-4.63835
  30
0.0
   0
SEQEND
   5
779
100
AcDbEntity
   8
LAYER0
   6
CONTINUOUS
   0
POLYLINE
   5
77A
100
AcDbEntity
   8
LAYER0
   6
CONTINUOUS
  62
      9
100
AcDb2dPolyline
  66
      1
  10
0.0
  20
0.0
  30
0.0
  70
      1
  75
      5
   0
VERTEX
   5
77B
100
AcDbEntity
   8
LAYER0
   6
CONTINUOUS
  62
      9
100
AcDbVertex
100
AcDb2dVertex
  10
-11.05849
  20
-4.63835
  30
0.0
   0
VERTEX
   5
77C
100
AcDbEntity
   8
LAYER0
   6
CONTINUOUS
  62
      9
100
AcDbVertex
100
AcDb2dVertex
  10
-11.08974
  20
-4.69248
  30
0.0
   0
VERTEX
   5
77D
100
AcDbEntity
   8
LAYER0
   6
CONTINUOUS
  62
      9
100
AcDbVertex
100
AcDb2dVertex
  10
-11.08974
  20
-4.24661
  30
0.0
   0
VERTEX
   5
77E
100
AcDbEntity
   8
LAYER0
   6
CONTINUOUS
  62
      9
100
AcDbVertex
100
AcDb2dVertex
  10
-11.05849
  20
-4.63836
  30
0.0
   0
SEQEND
   5
77F
100
AcDbEntity
   8
LAYER0
   6
CONTINUOUS
   0
ENDBLK
   5
780
100
AcDbEntity
   8
NONE
100
AcDbBlockEnd
   0
BLOCK
   5
781
100
AcDbEntity
   8
NONE
100
AcDbBlockBegin
   2
*G1
  70
      1
  10
0.0
  20
0.0
  30
0.0
   3

   1

   0
LWPOLYLINE
   5
782
100
AcDbEntity
   8
LAYER0
   6
CONTINUOUS
  62
      1
100
AcDbPolyline
  90
         5
  70
    129
  10
19.17568
  20
-27.59708
  10
19.42568
  20
-27.59708
  10
19.42568
  20
-29.59708
  10
19.17568
  20
-29.59708
  10
19.17568
  20
-27.59708
   0
LWPOLYLINE
   5
783
100
AcDbEntity
   8
LAYER0
   6
CONTINUOUS
  62
      1
100
AcDbPolyline
  90
         5
  70
    129
  10
17.67568
  20
-27.59708
  10
17.92568
  20
-27.59708
  10
17.92568
  20
-29.59708
  10
17.67568
  20
-29.59708
  10
17.67568
  20
-27.59708
   0
LWPOLYLINE
   5
784
100
AcDbEntity
   8
LAYER0
   6
CONTINUOUS
  62
      1
100
AcDbPolyline
  90
         5
  70
    129
  10
17.55068
  20
-29.59708
  10
19.55068
  20
-29.59708
  10
19.55068
  20
-29.84708
  10
17.55068
  20
-29.84708
  10
17.55068
  20
-29.59708
   0
ENDBLK
   5
785
100
AcDbEntity
   8
NONE
100
AcDbBlockEnd
   0
BLOCK
   5
786
100
AcDbEntity
   8
NONE
100
AcDbBlockBegin
   2
*G2
  70
      1
  10
0.0
  20
0.0
  30
0.0
   3

   1

   0
INSERT
   5
787
100
AcDbEntity
   8
NONE
100
AcDbBlockReference
   2
*G1
  10
0.0
  20
0.0
  30
0.0
   0
LINE
   5
788
100
AcDbEntity
   8
LAYER0
   6
CONTINUOUS
  62
      3
100
AcDbLine
  10
17.35068
  20
-28.59708
  30
0.0
  11
19.71068
  21
-28.59708
  31
0.0
   0
ENDBLK
   5
789
100
AcDbEntity
   8
NONE
100
AcDbBlockEnd
   0
BLOCK
   5
78A
100
AcDbEntity
   8
DIMENSION
100
AcDbBlockBegin
   2
*G3
  70
      1
  10
0.0
  20
0.0
  30
0.0
   3

   1

   0
LINE
   5
78B
100
AcDbEntity
   8
LAYER0
   6
CONTINUOUS
  62
      1
100
AcDbLine
  10
18.05068
  20
-4.09708
  30
0.0
  11
19.05068
  21
-4.09708
  31
0.0
   0
LINE
   5
78C
100
AcDbEntity
   8
LAYER0
   6
CONTINUOUS
  62
      1
100
AcDbLine
  10
18.55068
  20
-4.59708
  30
0.0
  11
18.55068
  21
-3.59708
  31
0.0
   0
ENDBLK
   5
78D
100
AcDbEntity
   8
DIMENSION
100
AcDbBlockEnd
   0
BLOCK
   5
78E
100
AcDbEntity
   8
NONE
100
AcDbBlockBegin
   2
*G4
  70
      1
  10
0.0
  20
0.0
  30
0.0
   3

   1

   0
LWPOLYLINE
   5
78F
100
AcDbEntity
   8
LAYER0
   6
CONTINUOUS
  62
      1
100
AcDbPolyline
  90
         5
  70
    129
  10
17.05068
  20
-2.59708
  10
20.05068
  20
-2.59708
  10
20.05068
  20
-7.59708
  10
17.05068
  20
-7.59708
  10
17.05068
  20
-2.59708
   0
LWPOLYLINE
   5
790
100
AcDbEntity
   8
LAYER0
   6
CONTINUOUS
  62
      1
100
AcDbPolyline
  90
         5
  70
    129
  10
15.55068
  20
-2.59708
  10
21.55068
  20
-2.59708
  10
21.55068
  20
-2.97208
  10
15.55068
  20
-2.97208
  10
15.55068
  20
-2.59708
   0
CIRCLE
   5
791
100
AcDbEntity
   8
LAYER0
   6
CONTINUOUS
  62
      1
100
AcDbCircle
  10
18.55068
  20
-4.09708
  30
0.0
  40
0.53125
   0
INSERT
   5
792
100
AcDbEntity
   8
DIMENSION
100
AcDbBlockReference
   2
*G3
  10
0.0
  20
0.0
  30
0.0
   0
ENDBLK
   5
793
100
AcDbEntity
   8
NONE
100
AcDbBlockEnd
   0
BLOCK
   5
794
100
AcDbEntity
   8
NONE
100
AcDbBlockBegin
   2
*G5
  70
      1
  10
0.0
  20
0.0
  30
0.0
   3

   1

   0
POLYLINE
   5
795
100
AcDbEntity
   8
LAYER0
   6
CONTINUOUS
  62
      5
100
AcDb2dPolyline
  66
      1
  10
0.0
  20
0.0
  30
0.0
  70
      1
  75
      5
   0
VERTEX
   5
796
100
AcDbEntity
   8
LAYER0
   6
CONTINUOUS
  62
      5
100
AcDbVertex
100
AcDb2dVertex
  10
-12.81807
  20
-0.82121
  30
0.0
   0
VERTEX
   5
797
100
AcDbEntity
   8
LAYER0
   6
CONTINUOUS
  62
      5
100
AcDbVertex
100
AcDb2dVertex
  10
-12.7531
  20
-0.76018
  30
0.0
   0
VERTEX
   5
798
100
AcDbEntity
   8
LAYER0
   6
CONTINUOUS
  62
      5
100
AcDbVertex
100
AcDb2dVertex
  10
-9.81807
  20
-0.8519
  30
0.0
   0
VERTEX
   5
799
100
AcDbEntity
   8
LAYER0
   6
CONTINUOUS
  62
      5
100
AcDbVertex
100
AcDb2dVertex
  10
-9.81807
  20
-1.2894
  30
0.0
   0
VERTEX
   5
79A
100
AcDbEntity
   8
LAYER0
   6
CONTINUOUS
  62
      5
100
AcDbVertex
100
AcDb2dVertex
  10
-12.75504
  20
-1.38118
  30
0.0
   0
VERTEX
   5
79B
100
AcDbEntity
   8
LAYER0
   6
CONTINUOUS
  62
      5
100
AcDbVertex
100
AcDb2dVertex
  10
-12.81807
  20
-1.31815
  30
0.0
   0
SEQEND
   5
79C
100
AcDbEntity
   8
LAYER0
   6
CONTINUOUS
   0
LINE
   5
79D
100
AcDbEntity
   8
LAYER0
   6
CONTINUOUS
  62
      5
100
AcDbLine
  10
-12.7531
  20
-0.76018
  30
0.0
  11
-12.75504
  21
-1.38118
  31
0.0
   0
ENDBLK
   5
79E
100
AcDbEntity
   8
NONE
100
AcDbBlockEnd
   0
BLOCK
   5
79F
100
AcDbEntity
   8
NONE
100
AcDbBlockBegin
   2
*G6
  70
      1
  10
0.0
  20
0.0
  30
0.0
   3

   1

   0
POLYLINE
   5
7A0
100
AcDbEntity
   8
LAYER0
   6
CONTINUOUS
  62
      5
100
AcDb2dPolyline
  66
      1
  10
0.0
  20
0.0
  30
0.0
  75
      5
   0
VERTEX
   5
7A1
100
AcDbEntity
   8
LAYER0
   6
CONTINUOUS
  62
      5
100
AcDbVertex
100
AcDb2dVertex
  10
-6.25557
  20
-4.77571
  30
0.0
   0
VERTEX
   5
7A2
100
AcDbEntity
   8
LAYER0
   6
CONTINUOUS
  62
      5
100
AcDbVertex
100
AcDb2dVertex
  10
-6.13057
  20
-4.57571
  30
0.0
   0
VERTEX
   5
7A3
100
AcDbEntity
   8
LAYER0
   6
CONTINUOUS
  62
      5
100
AcDbVertex
100
AcDb2dVertex
  10
-6.13057
  20
-3.97571
  30
0.0
   0
VERTEX
   5
7A4
100
AcDbEntity
   8
LAYER0
   6
CONTINUOUS
  62
      5
100
AcDbVertex
100
AcDb2dVertex
  10
-6.22432
  20
-3.82984
  30
0.0
   0
VERTEX
   5
7A5
100
AcDbEntity
   8
LAYER0
   6
CONTINUOUS
  62
      5
100
AcDbVertex
100
AcDb2dVertex
  10
-6.25557
  20
-3.88397
  30
0.0
   0
SEQEND
   5
7A6
100
AcDbEntity
   8
LAYER0
   6
CONTINUOUS
   0
POLYLINE
   5
7A7
100
AcDbEntity
   8
LAYER0
   6
CONTINUOUS
  62
      5
100
AcDb2dPolyline
  66
      1
  10
0.0
  20
0.0
  30
0.0
  75
      5
   0
VERTEX
   5
7A8
100
AcDbEntity
   8
LAYER0
   6
CONTINUOUS
  62
      5
100
AcDbVertex
100
AcDb2dVertex
  10
-7.31807
  20
-3.77571
  30
0.0
   0
VERTEX
   5
7A9
100
AcDbEntity
   8
LAYER0
   6
CONTINUOUS
  62
      5
100
AcDbVertex
100
AcDb2dVertex
  10
-7.38057
  20
-3.88396
  30
0.0
   0
VERTEX
   5
7AA
100
AcDbEntity
   8
LAYER0
   6
CONTINUOUS
  62
      5
100
AcDbVertex
100
AcDb2dVertex
  10
-7.38057
  20
-4.66745
  30
0.0
   0
VERTEX
   5
7AB
100
AcDbEntity
   8
LAYER0
   6
CONTINUOUS
  62
      5
100
AcDbVertex
100
AcDb2dVertex
  10
-7.34932
  20
-4.72158
  30
0.0
   0
VERTEX
   5
7AC
100
AcDbEntity
   8
LAYER0
   6
CONTINUOUS
  62
      5
100
AcDbVertex
100
AcDb2dVertex
  10
-7.31807
  20
-4.66745
  30
0.0
   0
SEQEND
   5
7AD
100
AcDbEntity
   8
LAYER0
   6
CONTINUOUS
   0
POLYLINE
   5
7AE
100
AcDbEntity
   8
LAYER0
   6
CONTINUOUS
  62
      5
100
AcDb2dPolyline
  66
      1
  10
0.0
  20
0.0
  30
0.0
  70
      1
  75
      5
   0
VERTEX
   5
7AF
100
AcDbEntity
   8
LAYER0
   6
CONTINUOUS
  62
      5
100
AcDbVertex
100
AcDb2dVertex
  10
-6.22432
  20
-3.82984
  30
0.0
   0
VERTEX
   5
7B0
100
AcDbEntity
   8
LAYER0
   6
CONTINUOUS
  62
      5
100
AcDbVertex
100
AcDb2dVertex
  10
-6.22432
  20
-4.27571
  30
0.0
   0
VERTEX
   5
7B1
100
AcDbEntity
   8
LAYER0
   6
CONTINUOUS
  62
      5
100
AcDbVertex
100
AcDb2dVertex
  10
-6.25557
  20
-3.88396
  30
0.0
   0
VERTEX
   5
7B2
100
AcDbEntity
   8
LAYER0
   6
CONTINUOUS
  62
      5
100
AcDbVertex
100
AcDb2dVertex
  10
-6.22432
  20
-3.82983
  30
0.0
   0
SEQEND
   5
7B3
100
AcDbEntity
   8
LAYER0
   6
CONTINUOUS
   0
POLYLINE
   5
7B4
100
AcDbEntity
   8
LAYER0
   6
CONTINUOUS
  62
      5
100
AcDb2dPolyline
  66
      1
  10
0.0
  20
0.0
  30
0.0
  75
      5
   0
VERTEX
   5
7B5
100
AcDbEntity
   8
LAYER0
   6
CONTINUOUS
  62
      5
100
AcDbVertex
100
AcDb2dVertex
  10
-6.25557
  20
-3.88396
  30
0.0
   0
VERTEX
   5
7B6
100
AcDbEntity
   8
LAYER0
   6
CONTINUOUS
  62
      5
100
AcDbVertex
100
AcDb2dVertex
  10
-6.31807
  20
-3.77571
  30
0.0
   0
VERTEX
   5
7B7
100
AcDbEntity
   8
LAYER0
   6
CONTINUOUS
  62
      5
100
AcDbVertex
100
AcDb2dVertex
  10
-6.25557
  20
-4.77571
  30
0.0
   0
SEQEND
   5
7B8
100
AcDbEntity
   8
LAYER0
   6
CONTINUOUS
   0
POLYLINE
   5
7B9
100
AcDbEntity
   8
LAYER0
   6
CONTINUOUS
  62
      5
100
AcDb2dPolyline
  66
      1
  10
0.0
  20
0.0
  30
0.0
  70
      1
  75
      5
   0
VERTEX
   5
7BA
100
AcDbEntity
   8
LAYER0
   6
CONTINUOUS
  62
      5
100
AcDbVertex
100
AcDb2dVertex
  10
-6.25557
  20
-4.77571
  30
0.0
   0
VERTEX
   5
7BB
100
AcDbEntity
   8
LAYER0
   6
CONTINUOUS
  62
      5
100
AcDbVertex
100
AcDb2dVertex
  10
-6.31807
  20
-4.66746
  30
0.0
   0
VERTEX
   5
7BC
100
AcDbEntity
   8
LAYER0
   6
CONTINUOUS
  62
      5
100
AcDbVertex
100
AcDb2dVertex
  10
-6.38057
  20
-3.88397
  30
0.0
   0
VERTEX
   5
7BD
100
AcDbEntity
   8
LAYER0
   6
CONTINUOUS
  62
      5
100
AcDbVertex
100
AcDb2dVertex
  10
-6.31807
  20
-3.77572
  30
0.0
   0
SEQEND
   5
7BE
100
AcDbEntity
   8
LAYER0
   6
CONTINUOUS
   0
POLYLINE
   5
7BF
100
AcDbEntity
   8
LAYER0
   6
CONTINUOUS
  62
      5
100
AcDb2dPolyline
  66
      1
  10
0.0
  20
0.0
  30
0.0
  70
      1
  75
      5
   0
VERTEX
   5
7C0
100
AcDbEntity
   8
LAYER0
   6
CONTINUOUS
  62
      5
100
AcDbVertex
100
AcDb2dVertex
  10
-6.38057
  20
-3.88397
  30
0.0
   0
VERTEX
   5
7C1
100
AcDbEntity
   8
LAYER0
   6
CONTINUOUS
  62
      5
100
AcDbVertex
100
AcDb2dVertex
  10
-6.44307
  20
-3.77572
  30
0.0
   0
VERTEX
   5
7C2
100
AcDbEntity
   8
LAYER0
   6
CONTINUOUS
  62
      5
100
AcDbVertex
100
AcDb2dVertex
  10
-6.38057
  20
-4.77572
  30
0.0
   0
VERTEX
   5
7C3
100
AcDbEntity
   8
LAYER0
   6
CONTINUOUS
  62
      5
100
AcDbVertex
100
AcDb2dVertex
  10
-6.31807
  20
-4.66747
  30
0.0
   0
SEQEND
   5
7C4
100
AcDbEntity
   8
LAYER0
   6
CONTINUOUS
   0
POLYLINE
   5
7C5
100
AcDbEntity
   8
LAYER0
   6
CONTINUOUS
  62
      5
100
AcDb2dPolyline
  66
      1
  10
0.0
  20
0.0
  30
0.0
  70
      1
  75
      5
   0
VERTEX
   5
7C6
100
AcDbEntity
   8
LAYER0
   6
CONTINUOUS
  62
      5
100
AcDbVertex
100
AcDb2dVertex
  10
-6.38057
  20
-4.77572
  30
0.0
   0
VERTEX
   5
7C7
100
AcDbEntity
   8
LAYER0
   6
CONTINUOUS
  62
      5
100
AcDbVertex
100
AcDb2dVertex
  10
-6.44307
  20
-4.66747
  30
0.0
   0
VERTEX
   5
7C8
100
AcDbEntity
   8
LAYER0
   6
CONTINUOUS
  62
      5
100
AcDbVertex
100
AcDb2dVertex
  10
-6.50557
  20
-3.88398
  30
0.0
   0
VERTEX
   5
7C9
100
AcDbEntity
   8
LAYER0
   6
CONTINUOUS
  62
      5
100
AcDbVertex
100
AcDb2dVertex
  10
-6.44307
  20
-3.77573
  30
0.0
   0
SEQEND
   5
7CA
100
AcDbEntity
   8
LAYER0
   6
CONTINUOUS
   0
POLYLINE
   5
7CB
100
AcDbEntity
   8
LAYER0
   6
CONTINUOUS
  62
      5
100
AcDb2dPolyline
  66
      1
  10
0.0
  20
0.0
  30
0.0
  70
      1
  75
      5
   0
VERTEX
   5
7CC
100
AcDbEntity
   8
LAYER0
   6
CONTINUOUS
  62
      5
100
AcDbVertex
100
AcDb2dVertex
  10
-6.50557
  20
-3.88398
  30
0.0
   0
VERTEX
   5
7CD
100
AcDbEntity
   8
LAYER0
   6
CONTINUOUS
  62
      5
100
AcDbVertex
100
AcDb2dVertex
  10
-6.56807
  20
-3.77573
  30
0.0
   0
VERTEX
   5
7CE
100
AcDbEntity
   8
LAYER0
   6
CONTINUOUS
  62
      5
100
AcDbVertex
100
AcDb2dVertex
  10
-6.50557
  20
-4.77573
  30
0.0
   0
VERTEX
   5
7CF
100
AcDbEntity
   8
LAYER0
   6
CONTINUOUS
  62
      5
100
AcDbVertex
100
AcDb2dVertex
  10
-6.44307
  20
-4.66748
  30
0.0
   0
SEQEND
   5
7D0
100
AcDbEntity
   8
LAYER0
   6
CONTINUOUS
   0
POLYLINE
   5
7D1
100
AcDbEntity
   8
LAYER0
   6
CONTINUOUS
  62
      5
100
AcDb2dPolyline
  66
      1
  10
0.0
  20
0.0
  30
0.0
  70
      1
  75
      5
   0
VERTEX
   5
7D2
100
AcDbEntity
   8
LAYER0
   6
CONTINUOUS
  62
      5
100
AcDbVertex
100
AcDb2dVertex
  10
-6.50557
  20
-4.77573
  30
0.0
   0
VERTEX
   5
7D3
100
AcDbEntity
   8
LAYER0
   6
CONTINUOUS
  62
      5
100
AcDbVertex
100
AcDb2dVertex
  10
-6.56807
  20
-4.66748
  30
0.0
   0
VERTEX
   5
7D4
100
AcDbEntity
   8
LAYER0
   6
CONTINUOUS
  62
      5
100
AcDbVertex
100
AcDb2dVertex
  10
-6.63057
  20
-3.88399
  30
0.0
   0
VERTEX
   5
7D5
100
AcDbEntity
   8
LAYER0
   6
CONTINUOUS
  62
      5
100
AcDbVertex
100
AcDb2dVertex
  10
-6.56807
  20
-3.77574
  30
0.0
   0
SEQEND
   5
7D6
100
AcDbEntity
   8
LAYER0
   6
CONTINUOUS
   0
POLYLINE
   5
7D7
100
AcDbEntity
   8
LAYER0
   6
CONTINUOUS
  62
      5
100
AcDb2dPolyline
  66
      1
  10
0.0
  20
0.0
  30
0.0
  70
      1
  75
      5
   0
VERTEX
   5
7D8
100
AcDbEntity
   8
LAYER0
   6
CONTINUOUS
  62
      5
100
AcDbVertex
100
AcDb2dVertex
  10
-6.63057
  20
-3.88399
  30
0.0
   0
VERTEX
   5
7D9
100
AcDbEntity
   8
LAYER0
   6
CONTINUOUS
  62
      5
100
AcDbVertex
100
AcDb2dVertex
  10
-6.69307
  20
-3.77574
  30
0.0
   0
VERTEX
   5
7DA
100
AcDbEntity
   8
LAYER0
   6
CONTINUOUS
  62
      5
100
AcDbVertex
100
AcDb2dVertex
  10
-6.63057
  20
-4.77574
  30
0.0
   0
VERTEX
   5
7DB
100
AcDbEntity
   8
LAYER0
   6
CONTINUOUS
  62
      5
100
AcDbVertex
100
AcDb2dVertex
  10
-6.56807
  20
-4.66749
  30
0.0
   0
SEQEND
   5
7DC
100
AcDbEntity
   8
LAYER0
   6
CONTINUOUS
   0
POLYLINE
   5
7DD
100
AcDbEntity
   8
LAYER0
   6
CONTINUOUS
  62
      5
100
AcDb2dPolyline
  66
      1
  10
0.0
  20
0.0
  30
0.0
  70
      1
  75
      5
   0
VERTEX
   5
7DE
100
AcDbEntity
   8
LAYER0
   6
CONTINUOUS
  62
      5
100
AcDbVertex
100
AcDb2dVertex
  10
-6.63057
  20
-4.77574
  30
0.0
   0
VERTEX
   5
7DF
100
AcDbEntity
   8
LAYER0
   6
CONTINUOUS
  62
      5
100
AcDbVertex
100
AcDb2dVertex
  10
-6.69307
  20
-4.66749
  30
0.0
   0
VERTEX
   5
7E0
100
AcDbEntity
   8
LAYER0
   6
CONTINUOUS
  62
      5
100
AcDbVertex
100
AcDb2dVertex
  10
-6.75557
  20
-3.884
  30
0.0
   0
VERTEX
   5
7E1
100
AcDbEntity
   8
LAYER0
   6
CONTINUOUS
  62
      5
100
AcDbVertex
100
AcDb2dVertex
  10
-6.69307
  20
-3.77575
  30
0.0
   0
SEQEND
   5
7E2
100
AcDbEntity
   8
LAYER0
   6
CONTINUOUS
   0
POLYLINE
   5
7E3
100
AcDbEntity
   8
LAYER0
   6
CONTINUOUS
  62
      5
100
AcDb2dPolyline
  66
      1
  10
0.0
  20
0.0
  30
0.0
  70
      1
  75
      5
   0
VERTEX
   5
7E4
100
AcDbEntity
   8
LAYER0
   6
CONTINUOUS
  62
      5
100
AcDbVertex
100
AcDb2dVertex
  10
-6.75557
  20
-3.884
  30
0.0
   0
VERTEX
   5
7E5
100
AcDbEntity
   8
LAYER0
   6
CONTINUOUS
  62
      5
100
AcDbVertex
100
AcDb2dVertex
  10
-6.81807
  20
-3.77575
  30
0.0
   0
VERTEX
   5
7E6
100
AcDbEntity
   8
LAYER0
   6
CONTINUOUS
  62
      5
100
AcDbVertex
100
AcDb2dVertex
  10
-6.75557
  20
-4.77575
  30
0.0
   0
VERTEX
   5
7E7
100
AcDbEntity
   8
LAYER0
   6
CONTINUOUS
  62
      5
100
AcDbVertex
100
AcDb2dVertex
  10
-6.69307
  20
-4.6675
  30
0.0
   0
SEQEND
   5
7E8
100
AcDbEntity
   8
LAYER0
   6
CONTINUOUS
   0
POLYLINE
   5
7E9
100
AcDbEntity
   8
LAYER0
   6
CONTINUOUS
  62
      5
100
AcDb2dPolyline
  66
      1
  10
0.0
  20
0.0
  30
0.0
  70
      1
  75
      5
   0
VERTEX
   5
7EA
100
AcDbEntity
   8
LAYER0
   6
CONTINUOUS
  62
      5
100
AcDbVertex
100
AcDb2dVertex
  10
-6.75557
  20
-4.77575
  30
0.0
   0
VERTEX
   5
7EB
100
AcDbEntity
   8
LAYER0
   6
CONTINUOUS
  62
      5
100
AcDbVertex
100
AcDb2dVertex
  10
-6.81807
  20
-4.6675
  30
0.0
   0
VERTEX
   5
7EC
100
AcDbEntity
   8
LAYER0
   6
CONTINUOUS
  62
      5
100
AcDbVertex
100
AcDb2dVertex
  10
-6.88057
  20
-3.88401
  30
0.0
   0
VERTEX
   5
7ED
100
AcDbEntity
   8
LAYER0
   6
CONTINUOUS
  62
      5
100
AcDbVertex
100
AcDb2dVertex
  10
-6.81807
  20
-3.77576
  30
0.0
   0
SEQEND
   5
7EE
100
AcDbEntity
   8
LAYER0
   6
CONTINUOUS
   0
POLYLINE
   5
7EF
100
AcDbEntity
   8
LAYER0
   6
CONTINUOUS
  62
      5
100
AcDb2dPolyline
  66
      1
  10
0.0
  20
0.0
  30
0.0
  70
      1
  75
      5
   0
VERTEX
   5
7F0
100
AcDbEntity
   8
LAYER0
   6
CONTINUOUS
  62
      5
100
AcDbVertex
100
AcDb2dVertex
  10
-6.88057
  20
-3.88401
  30
0.0
   0
VERTEX
   5
7F1
100
AcDbEntity
   8
LAYER0
   6
CONTINUOUS
  62
      5
100
AcDbVertex
100
AcDb2dVertex
  10
-6.94307
  20
-3.77576
  30
0.0
   0
VERTEX
   5
7F2
100
AcDbEntity
   8
LAYER0
   6
CONTINUOUS
  62
      5
100
AcDbVertex
100
AcDb2dVertex
  10
-6.88057
  20
-4.77576
  30
0.0
   0
VERTEX
   5
7F3
100
AcDbEntity
   8
LAYER0
   6
CONTINUOUS
  62
      5
100
AcDbVertex
100
AcDb2dVertex
  10
-6.81807
  20
-4.66751
  30
0.0
   0
SEQEND
   5
7F4
100
AcDbEntity
   8
LAYER0
   6
CONTINUOUS
   0
POLYLINE
   5
7F5
100
AcDbEntity
   8
LAYER0
   6
CONTINUOUS
  62
      5
100
AcDb2dPolyline
  66
      1
  10
0.0
  20
0.0
  30
0.0
  70
      1
  75
      5
   0
VERTEX
   5
7F6
100
AcDbEntity
   8
LAYER0
   6
CONTINUOUS
  62
      5
100
AcDbVertex
100
AcDb2dVertex
  10
-6.88057
  20
-4.77576
  30
0.0
   0
VERTEX
   5
7F7
100
AcDbEntity
   8
LAYER0
   6
CONTINUOUS
  62
      5
100
AcDbVertex
100
AcDb2dVertex
  10
-6.94307
  20
-4.66751
  30
0.0
   0
VERTEX
   5
7F8
100
AcDbEntity
   8
LAYER0
   6
CONTINUOUS
  62
      5
100
AcDbVertex
100
AcDb2dVertex
  10
-7.00557
  20
-3.88402
  30
0.0
   0
VERTEX
   5
7F9
100
AcDbEntity
   8
LAYER0
   6
CONTINUOUS
  62
      5
100
AcDbVertex
100
AcDb2dVertex
  10
-6.94307
  20
-3.77577
  30
0.0
   0
SEQEND
   5
7FA
100
AcDbEntity
   8
LAYER0
   6
CONTINUOUS
   0
POLYLINE
   5
7FB
100
AcDbEntity
   8
LAYER0
   6
CONTINUOUS
  62
      5
100
AcDb2dPolyline
  66
      1
  10
0.0
  20
0.0
  30
0.0
  70
      1
  75
      5
   0
VERTEX
   5
7FC
100
AcDbEntity
   8
LAYER0
   6
CONTINUOUS
  62
      5
100
AcDbVertex
100
AcDb2dVertex
  10
-7.00557
  20
-3.88402
  30
0.0
   0
VERTEX
   5
7FD
100
AcDbEntity
   8
LAYER0
   6
CONTINUOUS
  62
      5
100
AcDbVertex
100
AcDb2dVertex
  10
-7.06807
  20
-3.77577
  30
0.0
   0
VERTEX
   5
7FE
100
AcDbEntity
   8
LAYER0
   6
CONTINUOUS
  62
      5
100
AcDbVertex
100
AcDb2dVertex
  10
-7.00557
  20
-4.77577
  30
0.0
   0
VERTEX
   5
7FF
100
AcDbEntity
   8
LAYER0
   6
CONTINUOUS
  62
      5
100
AcDbVertex
100
AcDb2dVertex
  10
-6.94307
  20
-4.66752
  30
0.0
   0
SEQEND
   5
800
100
AcDbEntity
   8
LAYER0
   6
CONTINUOUS
   0
POLYLINE
   5
801
100
AcDbEntity
   8
LAYER0
   6
CONTINUOUS
  62
      5
100
AcDb2dPolyline
  66
      1
  10
0.0
  20
0.0
  30
0.0
  70
      1
  75
      5
   0
VERTEX
   5
802
100
AcDbEntity
   8
LAYER0
   6
CONTINUOUS
  62
      5
100
AcDbVertex
100
AcDb2dVertex
  10
-7.00557
  20
-4.77577
  30
0.0
   0
VERTEX
   5
803
100
AcDbEntity
   8
LAYER0
   6
CONTINUOUS
  62
      5
100
AcDbVertex
100
AcDb2dVertex
  10
-7.06807
  20
-4.66752
  30
0.0
   0
VERTEX
   5
804
100
AcDbEntity
   8
LAYER0
   6
CONTINUOUS
  62
      5
100
AcDbVertex
100
AcDb2dVertex
  10
-7.13057
  20
-3.88403
  30
0.0
   0
VERTEX
   5
805
100
AcDbEntity
   8
LAYER0
   6
CONTINUOUS
  62
      5
100
AcDbVertex
100
AcDb2dVertex
  10
-7.06807
  20
-3.77578
  30
0.0
   0
SEQEND
   5
806
100
AcDbEntity
   8
LAYER0
   6
CONTINUOUS
   0
POLYLINE
   5
807
100
AcDbEntity
   8
LAYER0
   6
CONTINUOUS
  62
      5
100
AcDb2dPolyline
  66
      1
  10
0.0
  20
0.0
  30
0.0
  70
      1
  75
      5
   0
VERTEX
   5
808
100
AcDbEntity
   8
LAYER0
   6
CONTINUOUS
  62
      5
100
AcDbVertex
100
AcDb2dVertex
  10
-7.13057
  20
-3.88403
  30
0.0
   0
VERTEX
   5
809
100
AcDbEntity
   8
LAYER0
   6
CONTINUOUS
  62
      5
100
AcDbVertex
100
AcDb2dVertex
  10
-7.19307
  20
-3.77578
  30
0.0
   0
VERTEX
   5
80A
100
AcDbEntity
   8
LAYER0
   6
CONTINUOUS
  62
      5
100
AcDbVertex
100
AcDb2dVertex
  10
-7.13057
  20
-4.77578
  30
0.0
   0
VERTEX
   5
80B
100
AcDbEntity
   8
LAYER0
   6
CONTINUOUS
  62
      5
100
AcDbVertex
100
AcDb2dVertex
  10
-7.06807
  20
-4.66753
  30
0.0
   0
SEQEND
   5
80C
100
AcDbEntity
   8
LAYER0
   6
CONTINUOUS
   0
POLYLINE
   5
80D
100
AcDbEntity
   8
LAYER0
   6
CONTINUOUS
  62
      5
100
AcDb2dPolyline
  66
      1
  10
0.0
  20
0.0
  30
0.0
  70
      1
  75
      5
   0
VERTEX
   5
80E
100
AcDbEntity
   8
LAYER0
   6
CONTINUOUS
  62
      5
100
AcDbVertex
100
AcDb2dVertex
  10
-7.13057
  20
-4.77578
  30
0.0
   0
VERTEX
   5
80F
100
AcDbEntity
   8
LAYER0
   6
CONTINUOUS
  62
      5
100
AcDbVertex
100
AcDb2dVertex
  10
-7.19307
  20
-4.66753
  30
0.0
   0
VERTEX
   5
810
100
AcDbEntity
   8
LAYER0
   6
CONTINUOUS
  62
      5
100
AcDbVertex
100
AcDb2dVertex
  10
-7.25557
  20
-3.88404
  30
0.0
   0
VERTEX
   5
811
100
AcDbEntity
   8
LAYER0
   6
CONTINUOUS
  62
      5
100
AcDbVertex
100
AcDb2dVertex
  10
-7.19307
  20
-3.77579
  30
0.0
   0
SEQEND
   5
812
100
AcDbEntity
   8
LAYER0
   6
CONTINUOUS
   0
POLYLINE
   5
813
100
AcDbEntity
   8
LAYER0
   6
CONTINUOUS
  62
      5
100
AcDb2dPolyline
  66
      1
  10
0.0
  20
0.0
  30
0.0
  70
      1
  75
      5
   0
VERTEX
   5
814
100
AcDbEntity
   8
LAYER0
   6
CONTINUOUS
  62
      5
100
AcDbVertex
100
AcDb2dVertex
  10
-7.25557
  20
-3.88404
  30
0.0
   0
VERTEX
   5
815
100
AcDbEntity
   8
LAYER0
   6
CONTINUOUS
  62
      5
100
AcDbVertex
100
AcDb2dVertex
  10
-7.31807
  20
-3.77579
  30
0.0
   0
VERTEX
   5
816
100
AcDbEntity
   8
LAYER0
   6
CONTINUOUS
  62
      5
100
AcDbVertex
100
AcDb2dVertex
  10
-7.25557
  20
-4.77579
  30
0.0
   0
VERTEX
   5
817
100
AcDbEntity
   8
LAYER0
   6
CONTINUOUS
  62
      5
100
AcDbVertex
100
AcDb2dVertex
  10
-7.19307
  20
-4.66754
  30
0.0
   0
SEQEND
   5
818
100
AcDbEntity
   8
LAYER0
   6
CONTINUOUS
   0
POLYLINE
   5
819
100
AcDbEntity
   8
LAYER0
   6
CONTINUOUS
  62
      5
100
AcDb2dPolyline
  66
      1
  10
0.0
  20
0.0
  30
0.0
  75
      5
   0
VERTEX
   5
81A
100
AcDbEntity
   8
LAYER0
   6
CONTINUOUS
  62
      5
100
AcDbVertex
100
AcDb2dVertex
  10
-7.31807
  20
-3.77579
  30
0.0
   0
VERTEX
   5
81B
100
AcDbEntity
   8
LAYER0
   6
CONTINUOUS
  62
      5
100
AcDbVertex
100
AcDb2dVertex
  10
-7.25557
  20
-4.77579
  30
0.0
   0
VERTEX
   5
81C
100
AcDbEntity
   8
LAYER0
   6
CONTINUOUS
  62
      5
100
AcDbVertex
100
AcDb2dVertex
  10
-7.31807
  20
-4.66754
  30
0.0
   0
SEQEND
   5
81D
100
AcDbEntity
   8
LAYER0
   6
CONTINUOUS
   0
POLYLINE
   5
81E
100
AcDbEntity
   8
LAYER0
   6
CONTINUOUS
  62
      5
100
AcDb2dPolyline
  66
      1
  10
0.0
  20
0.0
  30
0.0
  70
      1
  75
      5
   0
VERTEX
   5
81F
100
AcDbEntity
   8
LAYER0
   6
CONTINUOUS
  62
      5
100
AcDbVertex
100
AcDb2dVertex
  10
-7.31807
  20
-4.66754
  30
0.0
   0
VERTEX
   5
820
100
AcDbEntity
   8
LAYER0
   6
CONTINUOUS
  62
      5
100
AcDbVertex
100
AcDb2dVertex
  10
-7.34932
  20
-4.72167
  30
0.0
   0
VERTEX
   5
821
100
AcDbEntity
   8
LAYER0
   6
CONTINUOUS
  62
      5
100
AcDbVertex
100
AcDb2dVertex
  10
-7.34932
  20
-4.2758
  30
0.0
   0
VERTEX
   5
822
100
AcDbEntity
   8
LAYER0
   6
CONTINUOUS
  62
      5
100
AcDbVertex
100
AcDb2dVertex
  10
-7.31807
  20
-4.66755
  30
0.0
   0
SEQEND
   5
823
100
AcDbEntity
   8
LAYER0
   6
CONTINUOUS
   0
ENDBLK
   5
824
100
AcDbEntity
   8
NONE
100
AcDbBlockEnd
   0
BLOCK
   5
825
100
AcDbEntity
   8
NONE
100
AcDbBlockBegin
   2
*G7
  70
      1
  10
0.0
  20
0.0
  30
0.0
   3

   1

   0
POLYLINE
   5
826
100
AcDbEntity
   8
LAYER0
   6
CONTINUOUS
  62
      5
100
AcDb2dPolyline
  66
      1
  10
0.0
  20
0.0
  30
0.0
  70
      1
  75
      5
   0
VERTEX
   5
827
100
AcDbEntity
   8
LAYER0
   6
CONTINUOUS
  62
      5
100
AcDbVertex
100
AcDb2dVertex
  10
-7.38057
  20
-3.34071
  30
0.0
   0
VERTEX
   5
828
100
AcDbEntity
   8
LAYER0
   6
CONTINUOUS
  62
      5
100
AcDbVertex
100
AcDb2dVertex
  10
-7.31557
  20
-3.27571
  30
0.0
   0
VERTEX
   5
829
100
AcDbEntity
   8
LAYER0
   6
CONTINUOUS
  62
      5
100
AcDbVertex
100
AcDb2dVertex
  10
-6.21968
  20
-3.27571
  30
0.0
   0
VERTEX
   5
82A
100
AcDbEntity
   8
LAYER0
   6
CONTINUOUS
  62
      5
100
AcDbVertex
100
AcDb2dVertex
  10
-6.13057
  20
-3.40071
  30
0.0
   0
VERTEX
   5
82B
100
AcDbEntity
   8
LAYER0
   6
CONTINUOUS
  62
      5
100
AcDbVertex
100
AcDb2dVertex
  10
-6.13057
  20
-5.15071
  30
0.0
   0
VERTEX
   5
82C
100
AcDbEntity
   8
LAYER0
   6
CONTINUOUS
  62
      5
100
AcDbVertex
100
AcDb2dVertex
  10
-6.21968
  20
-5.27573
  30
0.0
   0
VERTEX
   5
82D
100
AcDbEntity
   8
LAYER0
   6
CONTINUOUS
  62
      5
100
AcDbVertex
100
AcDb2dVertex
  10
-7.31557
  20
-5.27571
  30
0.0
   0
VERTEX
   5
82E
100
AcDbEntity
   8
LAYER0
   6
CONTINUOUS
  62
      5
100
AcDbVertex
100
AcDb2dVertex
  10
-7.38057
  20
-5.21071
  30
0.0
   0
SEQEND
   5
82F
100
AcDbEntity
   8
LAYER0
   6
CONTINUOUS
   0
ARC
   5
830
100
AcDbEntity
   8
LAYER0
   6
CONTINUOUS
  62
      5
100
AcDbCircle
  10
-6.70111
  20
-3.56861
  30
0.0
  40
0.4818
100
AcDbArc
  50
322.559746
  51
37.440254
   0
ARC
   5
831
100
AcDbEntity
   8
LAYER0
   6
CONTINUOUS
  62
      5
100
AcDbCircle
  10
-6.70111
  20
-4.98283
  30
0.0
  40
0.4818
100
AcDbArc
  50
322.559746
  51
37.440254
   0
ARC
   5
832
100
AcDbEntity
   8
LAYER0
   6
CONTINUOUS
  62
      5
100
AcDbCircle
  10
-7.16557
  20
-4.27572
  30
0.0
  40
0.94286
100
AcDbArc
  50
333.939893
  51
26.060107
   0
LINE
   5
833
100
AcDbEntity
   8
LAYER0
   6
CONTINUOUS
  62
      5
100
AcDbLine
  10
-7.38057
  20
-3.86151
  30
0.0
  11
-6.31857
  21
-3.86151
  31
0.0
   0
LINE
   5
834
100
AcDbEntity
   8
LAYER0
   6
CONTINUOUS
  62
      5
100
AcDbLine
  10
-7.38057
  20
-4.68993
  30
0.0
  11
-6.31857
  21
-4.68993
  31
0.0
   0
LWPOLYLINE
   5
835
100
AcDbEntity
   8
LAYER0
   6
CONTINUOUS
  62
      5
100
AcDbPolyline
  90
         5
  70
    129
  10
-8.13057
  20
-3.40071
  10
-7.38057
  20
-3.40071
  10
-7.38057
  20
-5.15071
  10
-8.13057
  20
-5.15071
  10
-8.13057
  20
-3.40071
   0
LWPOLYLINE
   5
836
100
AcDbEntity
   8
LAYER0
   6
CONTINUOUS
  62
      5
100
AcDbPolyline
  90
         5
  70
    129
  10
-8.88057
  20
-3.02571
  10
-8.13057
  20
-3.02571
  10
-8.13057
  20
-5.52571
  10
-8.88057
  20
-5.52571
  10
-8.88057
  20
-3.02571
   0
LWPOLYLINE
   5
837
100
AcDbEntity
   8
LAYER0
   6
CONTINUOUS
  62
      5
100
AcDbPolyline
  90
         5
  70
    129
  10
-9.38057
  20
-3.40071
  10
-8.88057
  20
-3.40071
  10
-8.88057
  20
-5.15071
  10
-9.38057
  20
-5.15071
  10
-9.38057
  20
-3.40071
   0
CIRCLE
   5
838
100
AcDbEntity
   8
LAYER0
   6
CONTINUOUS
  62
      5
100
AcDbCircle
  10
-9.31807
  20
-0.77571
  30
0.0
  40
0.5
   0
CIRCLE
   5
839
100
AcDbEntity
   8
LAYER0
   6
CONTINUOUS
  62
      5
100
AcDbCircle
  10
-9.31807
  20
-7.77571
  30
0.0
  40
0.5
   0
LINE
   5
83A
100
AcDbEntity
   8
LAYER0
   6
CONTINUOUS
  62
      5
100
AcDbLine
  10
-8.88057
  20
-5.52571
  30
0.0
  11
-9.31807
  21
-7.27571
  31
0.0
   0
LINE
   5
83B
100
AcDbEntity
   8
LAYER0
   6
CONTINUOUS
  62
      5
100
AcDbLine
  10
-8.13057
  20
-5.52571
  30
0.0
  11
-8.99912
  21
-7.39065
  31
0.0
   0
LINE
   5
83C
100
AcDbEntity
   8
LAYER0
   6
CONTINUOUS
  62
      5
100
AcDbLine
  10
-8.88057
  20
-3.02571
  30
0.0
  11
-9.31807
  21
-1.27571
  31
0.0
   0
LINE
   5
83D
100
AcDbEntity
   8
LAYER0
   6
CONTINUOUS
  62
      5
100
AcDbLine
  10
-8.13057
  20
-3.02571
  30
0.0
  11
-8.99912
  21
-1.16077
  31
0.0
   0
LINE
   5
83E
100
AcDbEntity
   8
LAYER0
   6
CONTINUOUS
  62
      5
100
AcDbLine
  10
-9.81807
  20
-0.77571
  30
0.0
  11
-9.81807
  21
-1.40968
  31
0.0
   0
LINE
   5
83F
100
AcDbEntity
   8
LAYER0
   6
CONTINUOUS
  62
      5
100
AcDbLine
  10
-9.81807
  20
-1.40968
  30
0.0
  11
-9.24183
  21
-1.58065
  31
0.0
   0
INSERT
   5
840
100
AcDbEntity
   8
NONE
100
AcDbBlockReference
   2
*G5
  10
0.0
  20
0.0
  30
0.0
   0
LWPOLYLINE
   5
841
100
AcDbEntity
   8
LAYER0
   6
VECTORWORKS_DASH_01
  62
      5
100
AcDbPolyline
  90
         5
  70
    129
  10
-9.38057
  20
-3.77571
  10
-6.13057
  20
-3.77571
  10
-6.13057
  20
-4.77571
  10
-9.38057
  20
-4.77571
  10
-9.38057
  20
-3.77571
   0
INSERT
   5
842
100
AcDbEntity
   8
NONE
100
AcDbBlockReference
   2
*G6
  10
0.0
  20
0.0
  30
0.0
   0
LINE
   5
843
100
AcDbEntity
   8
LAYER0
   6
CONTINUOUS
  62
      5
100
AcDbLine
  10
-9.81807
  20
-1.40968
  30
0.0
  11
-9.81807
  21
-7.77571
  31
0.0
   0
LINE
   5
844
100
AcDbEntity
   8
LAYER0
   6
VECTORWORKS_DASH_01
  62
      5
100
AcDbLine
  10
-8.81807
  20
-0.77571
  30
0.0
  11
-8.81807
  21
-7.77571
  31
0.0
   0
LINE
   5
845
100
AcDbEntity
   8
LAYER0
   6
CONTINUOUS
  62
      5
100
AcDbLine
  10
-8.81807
  20
-0.77571
  30
0.0
  11
-8.81807
  21
-1.54952
  31
0.0
   0
LINE
   5
846
100
AcDbEntity
   8
LAYER0
   6
CONTINUOUS
  62
      5
100
AcDbLine
  10
-8.81807
  20
-7.0019
  30
0.0
  11
-8.81807
  21
-7.77571
  31
0.0
   0
ENDBLK
   5
847
100
AcDbEntity
   8
NONE
100
AcDbBlockEnd
   0
BLOCK
   5
848
100
AcDbEntity
   8
NONE
100
AcDbBlockBegin
   2
*G8
  70
      1
  10
0.0
  20
0.0
  30
0.0
   3

   1

   0
LWPOLYLINE
   5
849
100
AcDbEntity
   8
LAYER0
   6
CONTINUOUS
  62
      7
100
AcDbPolyline
  90
         5
  70
    129
  10
8.05026
  20
6.66542
  10
9.55026
  20
6.66542
  10
9.55026
  20
-29.33458
  10
8.05026
  20
-29.33458
  10
8.05026
  20
6.66542
   0
CIRCLE
   5
84A
100
AcDbEntity
   8
LAYER0
   6
CONTINUOUS
  62
      7
100
AcDbCircle
  10
8.80026
  20
-28.59708
  30
0.0
  40
0.28124
   0
LWPOLYLINE
   5
84B
100
AcDbEntity
   8
LAYER0
   6
CONTINUOUS
  62
      7
100
AcDbPolyline
  90
         5
  70
    129
  10
8.18068
  20
-27.44458
  10
9.43068
  20
-27.44458
  10
9.43068
  20
-29.33458
  10
8.18068
  20
-29.33458
  10
8.18068
  20
-27.44458
   0
ARC
   5
84C
100
AcDbEntity
   8
LAYER0
   6
CONTINUOUS
  62
      7
100
AcDbCircle
  10
8.80568
  20
-29.53458
  30
0.0
  40
2.18145
100
AcDbArc
  50
73.35107
  51
106.64893
   0
ENDBLK
   5
84D
100
AcDbEntity
   8
NONE
100
AcDbBlockEnd
   0
BLOCK
   5
84E
100
AcDbEntity
   8
DIMENSION
100
AcDbBlockBegin
   2
*G9
  70
      1
  10
0.0
  20
0.0
  30
0.0
   3

   1

   0
LINE
   5
84F
100
AcDbEntity
   8
LAYER0
   6
CONTINUOUS
  62
      1
100
AcDbLine
  10
10.30026
  20
-28.59708
  30
0.0
  11
11.30026
  21
-28.59708
  31
0.0
   0
LINE
   5
850
100
AcDbEntity
   8
LAYER0
   6
CONTINUOUS
  62
      1
100
AcDbLine
  10
10.80026
  20
-29.09708
  30
0.0
  11
10.80026
  21
-28.09708
  31
0.0
   0
ENDBLK
   5
851
100
AcDbEntity
   8
DIMENSION
100
AcDbBlockEnd
   0
BLOCK
   5
852
100
AcDbEntity
   8
NONE
100
AcDbBlockBegin
   2
*G10
  70
      1
  10
0.0
  20
0.0
  30
0.0
   3

   1

   0
CIRCLE
   5
853
100
AcDbEntity
   8
LAYER0
   6
CONTINUOUS
  62
      1
100
AcDbCircle
  10
10.80026
  20
-28.59708
  30
0.0
  40
0.28125
   0
INSERT
   5
854
100
AcDbEntity
   8
DIMENSION
100
AcDbBlockReference
   2
*G9
  10
0.0
  20
0.0
  30
0.0
   0
ENDBLK
   5
855
100
AcDbEntity
   8
NONE
100
AcDbBlockEnd
   0
BLOCK
   5
856
100
AcDbEntity
   8
DIMENSION
100
AcDbBlockBegin
   2
*G11
  70
      1
  10
0.0
  20
0.0
  30
0.0
   3

   1

   0
LINE
   5
857
100
AcDbEntity
   8
LAYER0
   6
CONTINUOUS
  62
      1
100
AcDbLine
  10
9.30026
  20
-28.59708
  30
0.0
  11
10.30026
  21
-28.59708
  31
0.0
   0
LINE
   5
858
100
AcDbEntity
   8
LAYER0
   6
CONTINUOUS
  62
      1
100
AcDbLine
  10
9.80026
  20
-29.09708
  30
0.0
  11
9.80026
  21
-28.09708
  31
0.0
   0
ENDBLK
   5
859
100
AcDbEntity
   8
DIMENSION
100
AcDbBlockEnd
   0
BLOCK
   5
85A
100
AcDbEntity
   8
NONE
100
AcDbBlockBegin
   2
*G12
  70
      1
  10
0.0
  20
0.0
  30
0.0
   3

   1

   0
CIRCLE
   5
85B
100
AcDbEntity
   8
LAYER0
   6
CONTINUOUS
  62
      1
100
AcDbCircle
  10
9.80026
  20
-28.59708
  30
0.0
  40
0.28125
   0
INSERT
   5
85C
100
AcDbEntity
   8
DIMENSION
100
AcDbBlockReference
   2
*G11
  10
0.0
  20
0.0
  30
0.0
   0
ENDBLK
   5
85D
100
AcDbEntity
   8
NONE
100
AcDbBlockEnd
   0
BLOCK
   5
85E
100
AcDbEntity
   8
DIMENSION
100
AcDbBlockBegin
   2
*G13
  70
      1
  10
0.0
  20
0.0
  30
0.0
   3

   1

   0
LINE
   5
85F
100
AcDbEntity
   8
LAYER0
   6
CONTINUOUS
  62
      1
100
AcDbLine
  10
8.30026
  20
-28.59708
  30
0.0
  11
9.30026
  21
-28.59708
  31
0.0
   0
LINE
   5
860
100
AcDbEntity
   8
LAYER0
   6
CONTINUOUS
  62
      1
100
AcDbLine
  10
8.80026
  20
-29.09708
  30
0.0
  11
8.80026
  21
-28.09708
  31
0.0
   0
ENDBLK
   5
861
100
AcDbEntity
   8
DIMENSION
100
AcDbBlockEnd
   0
BLOCK
   5
862
100
AcDbEntity
   8
NONE
100
AcDbBlockBegin
   2
*G14
  70
      1
  10
0.0
  20
0.0
  30
0.0
   3

   1

   0
CIRCLE
   5
863
100
AcDbEntity
   8
LAYER0
   6
CONTINUOUS
  62
      1
100
AcDbCircle
  10
8.80026
  20
-28.59708
  30
0.0
  40
0.28125
   0
INSERT
   5
864
100
AcDbEntity
   8
DIMENSION
100
AcDbBlockReference
   2
*G13
  10
0.0
  20
0.0
  30
0.0
   0
ENDBLK
   5
865
100
AcDbEntity
   8
NONE
100
AcDbBlockEnd
   0
BLOCK
   5
866
100
AcDbEntity
   8
DIMENSION
100
AcDbBlockBegin
   2
*G15
  70
      1
  10
0.0
  20
0.0
  30
0.0
   3

   1

   0
LINE
   5
867
100
AcDbEntity
   8
LAYER0
   6
CONTINUOUS
  62
      1
100
AcDbLine
  10
7.30026
  20
-28.59708
  30
0.0
  11
8.30026
  21
-28.59708
  31
0.0
   0
LINE
   5
868
100
AcDbEntity
   8
LAYER0
   6
CONTINUOUS
  62
      1
100
AcDbLine
  10
7.80026
  20
-29.09708
  30
0.0
  11
7.80026
  21
-28.09708
  31
0.0
   0
ENDBLK
   5
869
100
AcDbEntity
   8
DIMENSION
100
AcDbBlockEnd
   0
BLOCK
   5
86A
100
AcDbEntity
   8
NONE
100
AcDbBlockBegin
   2
*G16
  70
      1
  10
0.0
  20
0.0
  30
0.0
   3

   1

   0
CIRCLE
   5
86B
100
AcDbEntity
   8
LAYER0
   6
CONTINUOUS
  62
      1
100
AcDbCircle
  10
7.80026
  20
-28.59708
  30
0.0
  40
0.28125
   0
INSERT
   5
86C
100
AcDbEntity
   8
DIMENSION
100
AcDbBlockReference
   2
*G15
  10
0.0
  20
0.0
  30
0.0
   0
ENDBLK
   5
86D
100
AcDbEntity
   8
NONE
100
AcDbBlockEnd
   0
BLOCK
   5
86E
100
AcDbEntity
   8
DIMENSION
100
AcDbBlockBegin
   2
*G17
  70
      1
  10
0.0
  20
0.0
  30
0.0
   3

   1

   0
LINE
   5
86F
100
AcDbEntity
   8
LAYER0
   6
CONTINUOUS
  62
      1
100
AcDbLine
  10
6.30026
  20
-28.59708
  30
0.0
  11
7.30026
  21
-28.59708
  31
0.0
   0
LINE
   5
870
100
AcDbEntity
   8
LAYER0
   6
CONTINUOUS
  62
      1
100
AcDbLine
  10
6.80026
  20
-29.09708
  30
0.0
  11
6.80026
  21
-28.09708
  31
0.0
   0
ENDBLK
   5
871
100
AcDbEntity
   8
DIMENSION
100
AcDbBlockEnd
   0
BLOCK
   5
872
100
AcDbEntity
   8
NONE
100
AcDbBlockBegin
   2
*G18
  70
      1
  10
0.0
  20
0.0
  30
0.0
   3

   1

   0
CIRCLE
   5
873
100
AcDbEntity
   8
LAYER0
   6
CONTINUOUS
  62
      1
100
AcDbCircle
  10
6.80026
  20
-28.59708
  30
0.0
  40
0.28125
   0
INSERT
   5
874
100
AcDbEntity
   8
DIMENSION
100
AcDbBlockReference
   2
*G17
  10
0.0
  20
0.0
  30
0.0
   0
ENDBLK
   5
875
100
AcDbEntity
   8
NONE
100
AcDbBlockEnd
   0
BLOCK
   5
876
100
AcDbEntity
   8
DIMENSION
100
AcDbBlockBegin
   2
*G19
  70
      1
  10
0.0
  20
0.0
  30
0.0
   3

   1

   0
LINE
   5
877
100
AcDbEntity
   8
LAYER0
   6
CONTINUOUS
  62
      1
100
AcDbLine
  10
5.30026
  20
-28.59708
  30
0.0
  11
6.30026
  21
-28.59708
  31
0.0
   0
LINE
   5
878
100
AcDbEntity
   8
LAYER0
   6
CONTINUOUS
  62
      1
100
AcDbLine
  10
5.80026
  20
-29.09708
  30
0.0
  11
5.80026
  21
-28.09708
  31
0.0
   0
ENDBLK
   5
879
100
AcDbEntity
   8
DIMENSION
100
AcDbBlockEnd
   0
BLOCK
   5
87A
100
AcDbEntity
   8
NONE
100
AcDbBlockBegin
   2
*G20
  70
      1
  10
0.0
  20
0.0
  30
0.0
   3

   1

   0
CIRCLE
   5
87B
100
AcDbEntity
   8
LAYER0
   6
CONTINUOUS
  62
      1
100
AcDbCircle
  10
5.80026
  20
-28.59708
  30
0.0
  40
0.28125
   0
INSERT
   5
87C
100
AcDbEntity
   8
DIMENSION
100
AcDbBlockReference
   2
*G19
  10
0.0
  20
0.0
  30
0.0
   0
ENDBLK
   5
87D
100
AcDbEntity
   8
NONE
100
AcDbBlockEnd
   0
BLOCK
   5
87E
100
AcDbEntity
   8
DIMENSION
100
AcDbBlockBegin
   2
*G21
  70
      1
  10
0.0
  20
0.0
  30
0.0
   3

   1

   0
LINE
   5
87F
100
AcDbEntity
   8
LAYER0
   6
CONTINUOUS
  62
      1
100
AcDbLine
  10
4.30026
  20
-28.59708
  30
0.0
  11
5.30026
  21
-28.59708
  31
0.0
   0
LINE
   5
880
100
AcDbEntity
   8
LAYER0
   6
CONTINUOUS
  62
      1
100
AcDbLine
  10
4.80026
  20
-29.09708
  30
0.0
  11
4.80026
  21
-28.09708
  31
0.0
   0
ENDBLK
   5
881
100
AcDbEntity
   8
DIMENSION
100
AcDbBlockEnd
   0
BLOCK
   5
882
100
AcDbEntity
   8
NONE
100
AcDbBlockBegin
   2
*G22
  70
      1
  10
0.0
  20
0.0
  30
0.0
   3

   1

   0
CIRCLE
   5
883
100
AcDbEntity
   8
LAYER0
   6
CONTINUOUS
  62
      1
100
AcDbCircle
  10
4.80026
  20
-28.59708
  30
0.0
  40
0.28125
   0
INSERT
   5
884
100
AcDbEntity
   8
DIMENSION
100
AcDbBlockReference
   2
*G21
  10
0.0
  20
0.0
  30
0.0
   0
ENDBLK
   5
885
100
AcDbEntity
   8
NONE
100
AcDbBlockEnd
   0
BLOCK
   5
886
100
AcDbEntity
   8
DIMENSION
100
AcDbBlockBegin
   2
*G23
  70
      1
  10
0.0
  20
0.0
  30
0.0
   3

   1

   0
LINE
   5
887
100
AcDbEntity
   8
LAYER0
   6
CONTINUOUS
  62
      1
100
AcDbLine
  10
3.30026
  20
-28.59708
  30
0.0
  11
4.30026
  21
-28.59708
  31
0.0
   0
LINE
   5
888
100
AcDbEntity
   8
LAYER0
   6
CONTINUOUS
  62
      1
100
AcDbLine
  10
3.80026
  20
-29.09708
  30
0.0
  11
3.80026
  21
-28.09708
  31
0.0
   0
ENDBLK
   5
889
100
AcDbEntity
   8
DIMENSION
100
AcDbBlockEnd
   0
BLOCK
   5
88A
100
AcDbEntity
   8
NONE
100
AcDbBlockBegin
   2
*G24
  70
      1
  10
0.0
  20
0.0
  30
0.0
   3

   1

   0
CIRCLE
   5
88B
100
AcDbEntity
   8
LAYER0
   6
CONTINUOUS
  62
      1
100
AcDbCircle
  10
3.80026
  20
-28.59708
  30
0.0
  40
0.28125
   0
INSERT
   5
88C
100
AcDbEntity
   8
DIMENSION
100
AcDbBlockReference
   2
*G23
  10
0.0
  20
0.0
  30
0.0
   0
ENDBLK
   5
88D
100
AcDbEntity
   8
NONE
100
AcDbBlockEnd
   0
BLOCK
   5
88E
100
AcDbEntity
   8
DIMENSION
100
AcDbBlockBegin
   2
*G25
  70
      1
  10
0.0
  20
0.0
  30
0.0
   3

   1

   0
LINE
   5
88F
100
AcDbEntity
   8
LAYER0
   6
CONTINUOUS
  62
      1
100
AcDbLine
  10
2.30026
  20
-28.59708
  30
0.0
  11
3.30026
  21
-28.59708
  31
0.0
   0
LINE
   5
890
100
AcDbEntity
   8
LAYER0
   6
CONTINUOUS
  62
      1
100
AcDbLine
  10
2.80026
  20
-29.09708
  30
0.0
  11
2.80026
  21
-28.09708
  31
0.0
   0
ENDBLK
   5
891
100
AcDbEntity
   8
DIMENSION
100
AcDbBlockEnd
   0
BLOCK
   5
892
100
AcDbEntity
   8
NONE
100
AcDbBlockBegin
   2
*G26
  70
      1
  10
0.0
  20
0.0
  30
0.0
   3

   1

   0
CIRCLE
   5
893
100
AcDbEntity
   8
LAYER0
   6
CONTINUOUS
  62
      1
100
AcDbCircle
  10
2.80026
  20
-28.59708
  30
0.0
  40
0.28125
   0
INSERT
   5
894
100
AcDbEntity
   8
DIMENSION
100
AcDbBlockReference
   2
*G25
  10
0.0
  20
0.0
  30
0.0
   0
ENDBLK
   5
895
100
AcDbEntity
   8
NONE
100
AcDbBlockEnd
   0
BLOCK
   5
896
100
AcDbEntity
   8
DIMENSION
100
AcDbBlockBegin
   2
*G27
  70
      1
  10
0.0
  20
0.0
  30
0.0
   3

   1

   0
LINE
   5
897
100
AcDbEntity
   8
LAYER0
   6
CONTINUOUS
  62
      1
100
AcDbLine
  10
1.30026
  20
-28.59708
  30
0.0
  11
2.30026
  21
-28.59708
  31
0.0
   0
LINE
   5
898
100
AcDbEntity
   8
LAYER0
   6
CONTINUOUS
  62
      1
100
AcDbLine
  10
1.80026
  20
-29.09708
  30
0.0
  11
1.80026
  21
-28.09708
  31
0.0
   0
ENDBLK
   5
899
100
AcDbEntity
   8
DIMENSION
100
AcDbBlockEnd
   0
BLOCK
   5
89A
100
AcDbEntity
   8
NONE
100
AcDbBlockBegin
   2
*G28
  70
      1
  10
0.0
  20
0.0
  30
0.0
   3

   1

   0
CIRCLE
   5
89B
100
AcDbEntity
   8
LAYER0
   6
CONTINUOUS
  62
      1
100
AcDbCircle
  10
1.80026
  20
-28.59708
  30
0.0
  40
0.28125
   0
INSERT
   5
89C
100
AcDbEntity
   8
DIMENSION
100
AcDbBlockReference
   2
*G27
  10
0.0
  20
0.0
  30
0.0
   0
ENDBLK
   5
89D
100
AcDbEntity
   8
NONE
100
AcDbBlockEnd
   0
BLOCK
   5
89E
100
AcDbEntity
   8
DIMENSION
100
AcDbBlockBegin
   2
*G29
  70
      1
  10
0.0
  20
0.0
  30
0.0
   3

   1

   0
LINE
   5
89F
100
AcDbEntity
   8
LAYER0
   6
CONTINUOUS
  62
      1
100
AcDbLine
  10
0.30026
  20
-28.59708
  30
0.0
  11
1.30026
  21
-28.59708
  31
0.0
   0
LINE
   5
8A0
100
AcDbEntity
   8
LAYER0
   6
CONTINUOUS
  62
      1
100
AcDbLine
  10
0.80026
  20
-29.09708
  30
0.0
  11
0.80026
  21
-28.09708
  31
0.0
   0
ENDBLK
   5
8A1
100
AcDbEntity
   8
DIMENSION
100
AcDbBlockEnd
   0
BLOCK
   5
8A2
100
AcDbEntity
   8
NONE
100
AcDbBlockBegin
   2
*G30
  70
      1
  10
0.0
  20
0.0
  30
0.0
   3

   1

   0
CIRCLE
   5
8A3
100
AcDbEntity
   8
LAYER0
   6
CONTINUOUS
  62
      1
100
AcDbCircle
  10
0.80026
  20
-28.59708
  30
0.0
  40
0.28125
   0
INSERT
   5
8A4
100
AcDbEntity
   8
DIMENSION
100
AcDbBlockReference
   2
*G29
  10
0.0
  20
0.0
  30
0.0
   0
ENDBLK
   5
8A5
100
AcDbEntity
   8
NONE
100
AcDbBlockEnd
   0
BLOCK
   5
8A6
100
AcDbEntity
   8
DIMENSION
100
AcDbBlockBegin
   2
*G31
  70
      1
  10
0.0
  20
0.0
  30
0.0
   3

   1

   0
LINE
   5
8A7
100
AcDbEntity
   8
LAYER0
   6
CONTINUOUS
  62
      1
100
AcDbLine
  10
-0.69974
  20
-28.59708
  30
0.0
  11
0.30026
  21
-28.59708
  31
0.0
   0
LINE
   5
8A8
100
AcDbEntity
   8
LAYER0
   6
CONTINUOUS
  62
      1
100
AcDbLine
  10
-0.19974
  20
-29.09708
  30
0.0
  11
-0.19974
  21
-28.09708
  31
0.0
   0
ENDBLK
   5
8A9
100
AcDbEntity
   8
DIMENSION
100
AcDbBlockEnd
   0
BLOCK
   5
8AA
100
AcDbEntity
   8
NONE
100
AcDbBlockBegin
   2
*G32
  70
      1
  10
0.0
  20
0.0
  30
0.0
   3

   1

   0
CIRCLE
   5
8AB
100
AcDbEntity
   8
LAYER0
   6
CONTINUOUS
  62
      1
100
AcDbCircle
  10
-0.19974
  20
-28.59708
  30
0.0
  40
0.28125
   0
INSERT
   5
8AC
100
AcDbEntity
   8
DIMENSION
100
AcDbBlockReference
   2
*G31
  10
0.0
  20
0.0
  30
0.0
   0
ENDBLK
   5
8AD
100
AcDbEntity
   8
NONE
100
AcDbBlockEnd
   0
BLOCK
   5
8AE
100
AcDbEntity
   8
NONE
100
AcDbBlockBegin
   2
*G33
  70
      1
  10
0.0
  20
0.0
  30
0.0
   3

   1

   0
LINE
   5
8AF
100
AcDbEntity
   8
LAYER0
   6
CONTINUOUS
  62
      3
100
AcDbLine
  10
-1.01849
  20
-28.59708
  30
0.0
  11
14.51276
  21
-28.59708
  31
0.0
   0
LWPOLYLINE
   5
8B0
100
AcDbEntity
   8
LAYER0
   6
CONTINUOUS
  62
      1
100
AcDbPolyline
  90
         5
  70
    129
  10
-6.06794
  20
-27.59708
  10
12.36205
  20
-27.59708
  10
12.36205
  20
-29.59708
  10
-6.06794
  20
-29.59708
  10
-6.06794
  20
-27.59708
   0
INSERT
   5
8B1
100
AcDbEntity
   8
NONE
100
AcDbBlockReference
   2
*G10
  10
0.0
  20
0.0
  30
0.0
   0
INSERT
   5
8B2
100
AcDbEntity
   8
NONE
100
AcDbBlockReference
   2
*G12
  10
0.0
  20
0.0
  30
0.0
   0
INSERT
   5
8B3
100
AcDbEntity
   8
NONE
100
AcDbBlockReference
   2
*G14
  10
0.0
  20
0.0
  30
0.0
   0
INSERT
   5
8B4
100
AcDbEntity
   8
NONE
100
AcDbBlockReference
   2
*G16
  10
0.0
  20
0.0
  30
0.0
   0
INSERT
   5
8B5
100
AcDbEntity
   8
NONE
100
AcDbBlockReference
   2
*G18
  10
0.0
  20
0.0
  30
0.0
   0
INSERT
   5
8B6
100
AcDbEntity
   8
NONE
100
AcDbBlockReference
   2
*G20
  10
0.0
  20
0.0
  30
0.0
   0
INSERT
   5
8B7
100
AcDbEntity
   8
NONE
100
AcDbBlockReference
   2
*G22
  10
0.0
  20
0.0
  30
0.0
   0
INSERT
   5
8B8
100
AcDbEntity
   8
NONE
100
AcDbBlockReference
   2
*G24
  10
0.0
  20
0.0
  30
0.0
   0
INSERT
   5
8B9
100
AcDbEntity
   8
NONE
100
AcDbBlockReference
   2
*G26
  10
0.0
  20
0.0
  30
0.0
   0
INSERT
   5
8BA
100
AcDbEntity
   8
NONE
100
AcDbBlockReference
   2
*G28
  10
0.0
  20
0.0
  30
0.0
   0
INSERT
   5
8BB
100
AcDbEntity
   8
NONE
100
AcDbBlockReference
   2
*G30
  10
0.0
  20
0.0
  30
0.0
   0
INSERT
   5
8BC
100
AcDbEntity
   8
NONE
100
AcDbBlockReference
   2
*G32
  10
0.0
  20
0.0
  30
0.0
   0
LWPOLYLINE
   5
8BD
100
AcDbEntity
   8
LAYER0
   6
CONTINUOUS
  62
      1
100
AcDbPolyline
  90
         5
  70
    129
  10
-6.47637
  20
-29.59708
  10
-3.71794
  20
-29.59708
  10
-3.71794
  20
-29.84708
  10
-6.47637
  20
-29.84708
  10
-6.47637
  20
-29.59708
   0
LWPOLYLINE
   5
8BE
100
AcDbEntity
   8
LAYER0
   6
CONTINUOUS
  62
      1
100
AcDbPolyline
  90
         5
  70
    129
  10
10.03699
  20
-29.59708
  10
12.79542
  20
-29.59708
  10
12.79542
  20
-29.84708
  10
10.03699
  20
-29.84708
  10
10.03699
  20
-29.59708
   0
ENDBLK
   5
8BF
100
AcDbEntity
   8
NONE
100
AcDbBlockEnd
   0
BLOCK
   5
8C0
100
AcDbEntity
   8
NONE
100
AcDbBlockBegin
   2
*G34
  70
      1
  10
0.0
  20
0.0
  30
0.0
   3

   1

   0
LWPOLYLINE
   5
8C1
100
AcDbEntity
   8
LAYER0
   6
CONTINUOUS
  62
      1
100
AcDbPolyline
  90
         5
  70
    129
  10
-6.22432
  20
-1.59708
  10
-5.84932
  20
-1.59708
  10
-5.84932
  20
-7.59708
  10
-6.22432
  20
-7.59708
  10
-6.22432
  20
-1.59708
   0
LINE
   5
8C2
100
AcDbEntity
   8
LAYER0
   6
CONTINUOUS
  62
      1
100
AcDbLine
  10
-2.84932
  20
-3.12077
  30
0.0
  11
-5.84932
  21
-6.12077
  31
0.0
   0
LWPOLYLINE
   5
8C3
100
AcDbEntity
   8
LAYER0
   6
CONTINUOUS
  62
      1
100
AcDbPolyline
  90
         5
  70
    129
  10
-5.84932
  20
-2.74577
  10
-2.84932
  20
-2.74577
  10
-2.84932
  20
-3.12077
  10
-5.84932
  20
-3.12077
  10
-5.84932
  20
-2.74577
   0
ENDBLK
   5
8C4
100
AcDbEntity
   8
NONE
100
AcDbBlockEnd
   0
BLOCK
   5
8C5
100
AcDbEntity
   8
DIMENSION
100
AcDbBlockBegin
   2
*G35
  70
      1
  10
0.0
  20
0.0
  30
0.0
   3

   1

   0
LINE
   5
8C6
100
AcDbEntity
   8
LAYER0
   6
CONTINUOUS
  62
      1
100
AcDbLine
  10
7.78526
  20
-4.24514
  30
0.0
  11
6.78526
  21
-4.24514
  31
0.0
   0
LINE
   5
8C7
100
AcDbEntity
   8
LAYER0
   6
CONTINUOUS
  62
      1
100
AcDbLine
  10
7.28526
  20
-4.74514
  30
0.0
  11
7.28526
  21
-3.74514
  31
0.0
   0
ENDBLK
   5
8C8
100
AcDbEntity
   8
DIMENSION
100
AcDbBlockEnd
   0
BLOCK
   5
8C9
100
AcDbEntity
   8
NONE
100
AcDbBlockBegin
   2
*G36
  70
      1
  10
0.0
  20
0.0
  30
0.0
   3

   1

   0
LWPOLYLINE
   5
8CA
100
AcDbEntity
   8
LAYER0
   6
CONTINUOUS
  62
      1
100
AcDbPolyline
  90
         5
  70
    129
  10
6.65216
  20
-3.49514
  10
9.90216
  20
-3.49514
  10
9.90216
  20
-4.99514
  10
6.65216
  20
-4.99514
  10
6.65216
  20
-3.49514
   0
CIRCLE
   5
8CB
100
AcDbEntity
   8
LAYER0
   6
CONTINUOUS
  62
      1
100
AcDbCircle
  10
7.28526
  20
-4.24514
  30
0.0
  40
0.15625
   0
INSERT
   5
8CC
100
AcDbEntity
   8
DIMENSION
100
AcDbBlockReference
   2
*G35
  10
0.0
  20
0.0
  30
0.0
   0
ENDBLK
   5
8CD
100
AcDbEntity
   8
NONE
100
AcDbBlockEnd
   0
BLOCK
   5
8CE
100
AcDbEntity
   8
NONE
100
AcDbBlockBegin
   2
*G37
  70
      1
  10
0.0
  20
0.0
  30
0.0
   3

   1

   0
LWPOLYLINE
   5
8CF
100
AcDbEntity
   8
LAYER0
   6
CONTINUOUS
  62
      7
100
AcDbPolyline
  90
        15
  70
    129
  10
11.30026
  20
4.34789
  10
6.30026
  20
4.34789
  10
6.30026
  20
3.81786
  10
6.30026
  20
3.81786
  42
-0.343962
  10
7.05706
  20
2.84789
  10
7.05706
  20
2.84789
  42
-0.343955
  10
6.30026
  20
1.87791
  10
6.30026
  20
1.34789
  10
11.30026
  20
1.34789
  10
11.30026
  20
1.87791
  10
11.30026
  20
1.87791
  42
-0.34396
  10
10.54346
  20
2.84789
  10
10.54346
  20
2.84789
  42
-0.343955
  10
11.30026
  20
3.81787
  10
11.30026
  20
4.34789
   0
LWPOLYLINE
   5
8D0
100
AcDbEntity
   8
LAYER0
   6
CONTINUOUS
  62
      7
100
AcDbPolyline
  90
         5
  70
    129
  10
7.92526
  20
4.34789
  10
9.67526
  20
4.34789
  10
9.67526
  20
1.34789
  10
7.92526
  20
1.34789
  10
7.92526
  20
4.34789
   0
LWPOLYLINE
   5
8D1
100
AcDbEntity
   8
LAYER0
   6
CONTINUOUS
  62
      7
100
AcDbPolyline
  90
         5
  70
    129
  10
8.05026
  20
4.34789
  10
9.55026
  20
4.34789
  10
9.55026
  20
1.34789
  10
8.05026
  20
1.34789
  10
8.05026
  20
4.34789
   0
ENDBLK
   5
8D2
100
AcDbEntity
   8
NONE
100
AcDbBlockEnd
   0
BLOCK
   5
8D3
100
AcDbEntity
   8
NONE
100
AcDbBlockBegin
   2
*G38
  70
      1
  10
0.0
  20
0.0
  30
0.0
   3

   1

   0
LWPOLYLINE
   5
8D4
100
AcDbEntity
   8
LAYER0
   6
CONTINUOUS
  62
      7
100
AcDbPolyline
  90
         5
  70
    129
  10
24.49026
  20
27.46073
  10
25.24026
  20
27.46073
  10
25.24026
  20
27.01273
  10
24.49026
  20
27.01273
  10
24.49026
  20
27.46073
   0
SPLINE
   5
8D5
100
AcDbEntity
   8
LAYER0
   6
CONTINUOUS
  62
      7
100
AcDbSpline
210
0.0
220
0.0
230
1.0
  70
      8
  71
      3
  72
     11
  73
      7
  74
      0
  42
0.000001
  43
0.000001
  40
0.0
  40
0.0
  40
0.0
  40
0.0
  40
1.0
  40
1.0
  40
1.0
  40
2.0
  40
2.0
  40
2.0
  40
2.0
  10
24.4902599999999993
  20
27.4272400000000012
  30
0.0
  10
24.6152599999999993
  20
27.4718000000000018
  30
0.0
  10
24.7402599999999993
  20
27.4718000000000018
  30
0.0
  10
24.8652599999999993
  20
27.4272400000000012
  30
0.0
  10
24.9902599999999993
  20
27.4718000000000018
  30
0.0
  10
25.1152599999999993
  20
27.4718000000000018
  30
0.0
  10
25.2402599999999993
  20
27.4272400000000012
  30
0.0
   0
SPLINE
   5
8D6
100
AcDbEntity
   8
LAYER0
   6
CONTINUOUS
  62
      7
100
AcDbSpline
210
0.0
220
0.0
230
1.0
  70
      8
  71
      3
  72
     11
  73
      7
  74
      0
  42
0.000001
  43
0.000001
  40
0.0
  40
0.0
  40
0.0
  40
0.0
  40
1.0
  40
1.0
  40
1.0
  40
2.0
  40
2.0
  40
2.0
  40
2.0
  10
24.4902599999999993
  20
27.0462300000000013
  30
0.0
  10
24.6152599999999993
  20
27.0016700000000007
  30
0.0
  10
24.7402599999999993
  20
27.0016700000000007
  30
0.0
  10
24.8652599999999993
  20
27.0462300000000013
  30
0.0
  10
24.9902599999999993
  20
27.0016700000000007
  30
0.0
  10
25.1152599999999993
  20
27.0016700000000007
  30
0.0
  10
25.2402599999999993
  20
27.0462300000000013
  30
0.0
   0
LINE
   5
8D7
100
AcDbEntity
   8
LAYER0
   6
CONTINUOUS
  62
      7
100
AcDbLine
  10
24.86526
  20
27.42724
  30
0.0
  11
24.86526
  21
27.04623
  31
0.0
   0
ENDBLK
   5
8D8
100
AcDbEntity
   8
NONE
100
AcDbBlockEnd
   0
ENDSEC
   0
SECTION
   2
ENTITIES
   0
INSERT
   5
8D9
100
AcDbEntity
   8
NONE
100
AcDbBlockReference
   2
*G0
  10
23.29974
  20
22.85958
  30
0.0
   0
INSERT
   5
8DA
100
AcDbEntity
   8
NONE
100
AcDbBlockReference
   2
*G2
  10
23.29974
  20
22.85958
  30
0.0
   0
INSERT
   5
8DB
100
AcDbEntity
   8
NONE
100
AcDbBlockReference
   2
*G4
  10
23.29974
  20
22.85958
  30
0.0
   0
LWPOLYLINE
   5
8DC
100
AcDbEntity
   8
LAYER0
   6
CONTINUOUS
  62
      7
100
AcDbPolyline
  90
         5
  70
    129
  10
41.10042
  20
29.2625
  10
42.60042
  20
29.2625
  10
42.60042
  20
-6.7375
  10
41.10042
  20
-6.7375
  10
41.10042
  20
29.2625
   0
TEXT
   5
8DD
100
AcDbEntity
   8
LAYER0
  62
      5
100
AcDbText
  10
-20.49148
  20
52.74295
  30
0.0
  40
2.4
   1
Tubing/Bar Roller  - Parts A
  41
0.6
  11
-20.49148
  21
52.74295
  31
0.0
100
AcDbText
  73
      3
   0
LINE
   5
8DE
100
AcDbEntity
   8
LAYER0
   6
CONTINUOUS
  62
      5
100
AcDbLine
  10
11.80042
  20
25.075
  30
0.0
  11
14.20042
  21
25.075
  31
0.0
   0
SOLID
   5
8E0
100
AcDbEntity
   8
LAYER0
  62
      5
100
AcDbTrace
  10
17.07542
  20
21.2625
  30
0.0
  11
16.76949
  21
21.50152
  31
0.0
  12
16.92999
  22
21.62246
  32
0.0
  13
16.92999
  23
21.62246
  33
0.0
   0
LINE
   5
8DF
100
AcDbEntity
   8
LAYER0
   6
CONTINUOUS
  62
      5
100
AcDbLine
  10
14.20042
  20
25.075
  30
0.0
  11
17.07542
  21
21.2625
  31
0.0
   0
LINE
   5
8E1
100
AcDbEntity
   8
LAYER0
   6
CONTINUOUS
  62
      5
100
AcDbLine
  10
8.20042
  20
21.2625
  30
0.0
  11
9.35042
  21
21.2625
  31
0.0
   0
SOLID
   5
8E3
100
AcDbEntity
   8
LAYER0
  62
      5
100
AcDbTrace
  10
12.24125
  20
19.11448
  30
0.0
  11
11.88129
  21
19.25991
  31
0.0
  12
12.00223
  22
19.42041
  32
0.0
  13
12.00223
  23
19.42041
  33
0.0
   0
LINE
   5
8E2
100
AcDbEntity
   8
LAYER0
   6
CONTINUOUS
  62
      5
100
AcDbLine
  10
9.35042
  20
21.2625
  30
0.0
  11
12.24125
  21
19.11448
  31
0.0
   0
LINE
   5
8E4
100
AcDbEntity
   8
LAYER0
   6
CONTINUOUS
  62
      5
100
AcDbLine
  10
26.40042
  20
22.7625
  30
0.0
  11
29.80042
  21
22.7625
  31
0.0
   0
SOLID
   5
8E6
100
AcDbEntity
   8
LAYER0
  62
      5
100
AcDbTrace
  10
31.35
  20
21.4125
  30
0.0
  11
31.00408
  21
21.58875
  31
0.0
  12
31.13855
  22
21.7381
  32
0.0
  13
31.13855
  23
21.7381
  33
0.0
   0
LINE
   5
8E5
100
AcDbEntity
   8
LAYER0
   6
CONTINUOUS
  62
      5
100
AcDbLine
  10
29.80042
  20
22.7625
  30
0.0
  11
31.35
  21
21.4125
  31
0.0
   0
LINE
   5
8E7
100
AcDbEntity
   8
LAYER0
   6
CONTINUOUS
  62
      5
100
AcDbLine
  10
16.40042
  20
-1.125
  30
0.0
  11
19.20042
  21
-1.125
  31
0.0
   0
SOLID
   5
8E9
100
AcDbEntity
   8
LAYER0
  62
      5
100
AcDbTrace
  10
20.16839
  20
-4.7375
  30
0.0
  11
19.97428
  21
-4.40128
  31
0.0
  12
20.16839
  22
-4.34927
  32
0.0
  13
20.16839
  23
-4.34927
  33
0.0
   0
LINE
   5
8E8
100
AcDbEntity
   8
LAYER0
   6
CONTINUOUS
  62
      5
100
AcDbLine
  10
19.20042
  20
-1.125
  30
0.0
  11
20.16839
  21
-4.7375
  31
0.0
   0
TEXT
   5
8EA
100
AcDbEntity
   8
LAYER0
  62
      5
100
AcDbText
  10
16.59127
  20
11.80833
  30
0.0
  40
1.06666
   1
Screw Yoke
  41
0.6
  11
16.59127
  21
11.80833
  31
0.0
100
AcDbText
  73
      3
   0
TEXT
   5
8EB
100
AcDbEntity
   8
LAYER0
  62
      5
100
AcDbText
  10
20.50042
  20
23.4625
  30
0.0
  40
1.06666
   1
Main Bar
  41
0.6
  11
20.50042
  21
23.4625
  31
0.0
100
AcDbText
  73
      3
   0
TEXT
   5
8EC
100
AcDbEntity
   8
LAYER0
  62
      5
100
AcDbText
  10
-4.05795
  20
25.82912
  30
0.0
  40
1.06666
   1
Screw Guide / Force Plate
  41
0.6
  11
-4.05795
  21
25.82912
  31
0.0
100
AcDbText
  73
      3
   0
TEXT
   5
8ED
100
AcDbEntity
   8
LAYER0
  62
      5
100
AcDbText
  10
0.72358
  20
22.04167
  30
0.0
  40
1.06666
   1
Main Screw
  41
0.6
  11
0.72358
  21
22.04167
  31
0.0
100
AcDbText
  73
      3
   0
TEXT
   5
8EE
100
AcDbEntity
   8
LAYER0
  62
      5
100
AcDbText
  10
6.21074
  20
-0.22236
  30
0.0
  40
1.06666
   1
Lower Pin Track
  41
0.6
  11
6.21074
  21
-0.22236
  31
0.0
100
AcDbText
  73
      3
   0
INSERT
   5
8EF
100
AcDbEntity
   8
NONE
100
AcDbBlockReference
   2
*G7
  10
23.29974
  20
22.85958
  30
0.0
   0
LINE
   5
8F0
100
AcDbEntity
   8
LAYER0
   6
CONTINUOUS
  62
      5
100
AcDbLine
  10
9.95042
  20
13.325
  30
0.0
  11
11.95042
  21
13.325
  31
0.0
   0
SOLID
   5
8F2
100
AcDbEntity
   8
LAYER0
  62
      5
100
AcDbTrace
  10
13.60368
  20
14.75657
  30
0.0
  11
13.381
  21
14.43855
  31
0.0
  12
13.25182
  22
14.5925
  32
0.0
  13
13.25182
  23
14.5925
  33
0.0
   0
LINE
   5
8F1
100
AcDbEntity
   8
LAYER0
   6
CONTINUOUS
  62
      5
100
AcDbLine
  10
11.95042
  20
13.325
  30
0.0
  11
13.60368
  21
14.75657
  31
0.0
   0
TEXT
   5
8F3
100
AcDbEntity
   8
LAYER0
  62
      5
100
AcDbText
  10
1.03327
  20
14.1247
  30
0.0
  40
1.06666
   1
Tension Wheel
  41
0.6
  11
1.03327
  21
14.1247
  31
0.0
100
AcDbText
  73
      3
   0
INSERT
   5
8F4
100
AcDbEntity
   8
NONE
100
AcDbBlockReference
   2
*G8
  10
23.29974
  20
22.85958
  30
0.0
   0
INSERT
   5
8F5
100
AcDbEntity
   8
NONE
100
AcDbBlockReference
   2
*G33
  10
23.29974
  20
22.85958
  30
0.0
   0
INSERT
   5
8F6
100
AcDbEntity
   8
NONE
100
AcDbBlockReference
   2
*G34
  10
23.29974
  20
22.85958
  30
0.0
   0
INSERT
   5
8F7
100
AcDbEntity
   8
NONE
100
AcDbBlockReference
   2
*G36
  10
23.29974
  20
22.85958
  30
0.0
   0
LINE
   5
8F8
100
AcDbEntity
   8
LAYER0
   6
CONTINUOUS
  62
      5
100
AcDbLine
  10
23.69791
  20
11.04166
  30
0.0
  11
27.66541
  21
11.04166
  31
0.0
   0
SOLID
   5
8FA
100
AcDbEntity
   8
LAYER0
  62
      5
100
AcDbTrace
  10
30.8231
  20
17.86444
  30
0.0
  11
30.75568
  21
17.48211
  31
0.0
  12
30.57355
  22
17.56704
  32
0.0
  13
30.57355
  23
17.56704
  33
0.0
   0
LINE
   5
8F9
100
AcDbEntity
   8
LAYER0
   6
CONTINUOUS
  62
      5
100
AcDbLine
  10
27.66541
  20
11.04166
  30
0.0
  11
30.8231
  21
17.86444
  31
0.0
   0
INSERT
   5
8FB
100
AcDbEntity
   8
NONE
100
AcDbBlockReference
   2
*G37
  10
23.29974
  20
22.85958
  30
0.0
   0
LWPOLYLINE
   5
8FC
100
AcDbEntity
   8
LAYER0
   6
CONTINUOUS
  62
      7
100
AcDbPolyline
  90
         5
  70
    129
  10
29.6
  20
27.20747
  10
34.6
  20
27.20747
  10
34.6
  20
26.95747
  10
29.6
  20
26.95747
  10
29.6
  20
27.20747
   0
LWPOLYLINE
   5
8FD
100
AcDbEntity
   8
LAYER0
   6
CONTINUOUS
  62
      7
100
AcDbPolyline
  90
         5
  70
    129
  10
29.6
  20
24.45747
  10
34.6
  20
24.45747
  10
34.6
  20
24.20747
  10
29.6
  20
24.20747
  10
29.6
  20
24.45747
   0
LWPOLYLINE
   5
8FE
100
AcDbEntity
   8
LAYER0
   6
CONTINUOUS
  62
      7
100
AcDbPolyline
  90
         5
  70
    129
  10
29.6
  20
27.20747
  10
34.6
  20
27.20747
  10
34.6
  20
26.95747
  10
29.6
  20
26.95747
  10
29.6
  20
27.20747
   0
LWPOLYLINE
   5
8FF
100
AcDbEntity
   8
LAYER0
   6
CONTINUOUS
  62
      7
100
AcDbPolyline
  90
         5
  70
    129
  10
29.6
  20
24.45747
  10
34.6
  20
24.45747
  10
34.6
  20
24.20747
  10
29.6
  20
24.20747
  10
29.6
  20
24.45747
   0
LINE
   5
900
100
AcDbEntity
   8
LAYER0
   6
CONTINUOUS
  62
      7
100
AcDbLine
  10
29.6
  20
26.67744
  30
0.0
  11
34.6
  21
26.67745
  31
0.0
   0
LINE
   5
901
100
AcDbEntity
   8
LAYER0
   6
CONTINUOUS
  62
      7
100
AcDbLine
  10
29.6
  20
24.73749
  30
0.0
  11
34.6
  21
24.73749
  31
0.0
   0
LINE
   5
902
100
AcDbEntity
   8
LAYER0
   6
CONTINUOUS
  62
      5
100
AcDbLine
  10
24.30042
  20
28.0125
  30
0.0
  11
26.40042
  21
28.0125
  31
0.0
   0
SOLID
   5
904
100
AcDbEntity
   8
LAYER0
  62
      5
100
AcDbTrace
  10
29.6
  20
26.95747
  30
0.0
  11
29.21272
  21
26.98455
  31
0.0
  12
29.27814
  22
27.17457
  32
0.0
  13
29.27814
  23
27.17457
  33
0.0
   0
LINE
   5
903
100
AcDbEntity
   8
LAYER0
   6
CONTINUOUS
  62
      5
100
AcDbLine
  10
26.40042
  20
28.0125
  30
0.0
  11
29.6
  21
26.95747
  31
0.0
   0
TEXT
   5
905
100
AcDbEntity
   8
LAYER0
  62
      5
100
AcDbText
  10
18.40042
  20
28.5125
  30
0.0
  40
1.06666
   1
Roller die
  41
0.6
  11
18.40042
  21
28.5125
  31
0.0
100
AcDbText
  73
      3
   0
LWPOLYLINE
   5
906
100
AcDbEntity
   8
LAYER0
   6
CONTINUOUS
  62
      7
100
AcDbPolyline
  90
         5
  70
    129
  10
30.025
  20
32.9125
  10
34.525
  20
32.9125
  10
34.525
  20
32.6625
  10
30.025
  20
32.6625
  10
30.025
  20
32.9125
   0
LWPOLYLINE
   5
907
100
AcDbEntity
   8
LAYER0
   6
CONTINUOUS
  62
      7
100
AcDbPolyline
  90
         5
  70
    129
  10
31.275
  20
39.2875
  10
33.275
  20
39.2875
  10
33.275
  20
32.9125
  10
31.275
  20
32.9125
  10
31.275
  20
39.2875
   0
LWPOLYLINE
   5
908
100
AcDbEntity
   8
LAYER0
   6
CONTINUOUS
  62
      7
100
AcDbPolyline
  90
         5
  70
    129
  10
31.0
  20
39.7875
  10
49.0
  20
39.7875
  10
49.0
  20
39.2875
  10
31.0
  20
39.2875
  10
31.0
  20
39.7875
   0
LWPOLYLINE
   5
909
100
AcDbEntity
   8
LAYER0
   6
CONTINUOUS
  62
      7
100
AcDbPolyline
  90
         5
  70
    129
  10
47.65
  20
49.7875
  10
48.65
  20
49.7875
  10
48.65
  20
39.7875
  10
47.65
  20
39.7875
  10
47.65
  20
49.7875
   0
LWPOLYLINE
   5
90A
100
AcDbEntity
   8
LAYER0
   6
CONTINUOUS
  62
      7
100
AcDbPolyline
  90
         5
  70
    129
  10
47.5
  20
49.87231
  10
48.785
  20
49.87231
  10
48.785
  20
49.7875
  10
47.5
  20
49.7875
  10
47.5
  20
49.87231
   0
INSERT
   5
90B
100
AcDbEntity
   8
NONE
100
AcDbBlockReference
   2
*G38
  10
23.29974
  20
22.85958
  30
0.0
   0
LINE
   5
90C
100
AcDbEntity
   8
LAYER0
   6
CONTINUOUS
  62
      5
100
AcDbLine
  10
26.05021
  20
37.44002
  30
0.0
  11
28.15021
  21
37.44002
  31
0.0
   0
SOLID
   5
90E
100
AcDbEntity
   8
LAYER0
  62
      5
100
AcDbTrace
  10
31.34979
  20
36.38499
  30
0.0
  11
30.96251
  21
36.41207
  31
0.0
  12
31.02793
  22
36.60209
  32
0.0
  13
31.02793
  23
36.60209
  33
0.0
   0
LINE
   5
90D
100
AcDbEntity
   8
LAYER0
   6
CONTINUOUS
  62
      5
100
AcDbLine
  10
28.15021
  20
37.44002
  30
0.0
  11
31.34979
  21
36.38499
  31
0.0
   0
TEXT
   5
90F
100
AcDbEntity
   8
LAYER0
  62
      5
100
AcDbText
  10
18.94357
  20
38.20669
  30
0.0
  40
1.06666
   1
Hand Crank
  41
0.6
  11
18.94357
  21
38.20669
  31
0.0
100
AcDbText
  73
      3
   0
ENDSEC
   0
SECTION
   2
OBJECTS
   0
DICTIONARY
   5
19
100
AcDbDictionary
   3
ACAD_GROUP
350
1A
   3
ACAD_MLINESTYLE
350
1B
   0
DICTIONARY
   5
1A
102
{ACAD_REACTORS
330
19
102
}
100
AcDbDictionary
   0
DICTIONARY
   5
1B
102
{ACAD_REACTORS
330
19
102
}
100
AcDbDictionary
   3
STANDARD
350
1C
   0
MLINESTYLE
   5
1C
102
{ACAD_REACTORS
330
1B
102
}
100
AcDbMlineStyle
   2
STANDARD
  70
      0
   3

  62
      0
  51
90.0
  52
90.0
  71
      2
  49
0.5
  62
    256
   6
BYLAYER
  49
-0.5
  62
    256
   6
BYLAYER
   0
ENDSEC
   0
EOF